Guitaretab - guitar tabs
Song name
# A B C D E F G H I J K L M N O P Q R S T U V W X Y Z

Misc Cartoons - Spongebob Squarepants - Bikini Bottom Theme tab

Spongebob Bikini Bottom Theme  

+  Tap String
/   Slide Up
                                                                  [               x4            ] 
E|-----------------------------------------------12-11-9-12-11-9------]
B|----------------------12-11-12-14-12--------------------------------]
G|--------------------------------------------------------------------]
D|--------------------------------------------------------------------]
A|--------14-+------14-+--------------------14-+----------------------]
E|--12-+-------12-+--------------------12-+---------------------------]
[ Tab from: http://www.guitaretab.com/m/misc-cartoons/191400.html ]
E|------------------------------12-12-14-16-14-16-14------------------]
B|--12-11-12-14-12----------------------------------------------------]
G|--------------------------------------------------------------------]
D|--------------------------------------------------------------------]
A|-----------------------14-+-----------------------------------------]
E|------------------12-+----------------------------------------------]

E|--12-12-14-15-15-15-14-12---------------------------------11-11/12--]
B|--------------------------12-11-12-14-12-+-12-11-12-14-12-----------]
G|--------------------------------------------------------------------]
D|--------------------------------------------------------------------]
A|--------------------------------------------------------------------]
E|--------------------------------------------------------------------]

Related for Spongebob Squarepants - Bikini Bottom Theme tab
Advertisement will be closed in 10 seconds