Song name
# A B C D E F G H I J K L M N O P Q R S T U V W X Y Z

Misc Cartoons - Cow And Chiken Theme tab

This is what i could Hear my self to.. hope i can work for you. Just give it a lof of distortion:)

Momma had a chiken , momma had a cow, Dad was proud, he didten care how

PRETTY fast
Intro
e------------------------------------|
B------------------------------------|
g------------------------------------|
d------------------------------------|
a------------------------------------|
E111222333444------------------------|

e8--5----88--5--5/-----8---5--5/----------------|
B9--5----99--5--5/7----9---5--5/7--5------------|
g-----------------7-------------7--5------------|
d-----------------------------------------------|
a-----------------------------------------------|
E-----------------------------------------------|

COW!

e15---12----1515--1212--10----15--1212--10/----------------|
B15---12----1515--1212--10----15--1212--10/12--------------|
g------------------------------------------12--------------|
d----------------------------------------------------------|
a----------------------------------------------------------|
E----------------------------------------------------------|

Chiken!

e8--5----88--5--5/-----8---5--5/----------------|
B9--5----99--5--5/7----9---5--5/7--5------------|
g-----------------7-------------7--5------------|
d-----------------------------------------------|
a-----------------------------------------------|
E-----------------------------------------------|

COW AND CHIKEN!!!

e15---12----1515--1212--10----------------------------------------|
B15---12----1515--1212--10-1212121212-----------------------------|
g--------------------------1212121212---14B------------14---------|
d-----------------------------------------------------------------|
a-----------------------------------------------------------------|
E-----------------------------------------------------------------|
                                            Hahahhahaha

I did my best:)

Enjoy
Tap to rate this tab
 
# A B C D E F G H I J K L M N O P Q R S T U V W X Y Z