Song name
# A B C D E F G H I J K L M N O P Q R S T U V W X Y Z

Misc Cartoons - Saber Marionette - Isshoni tab

E|-----------------------------|-----------------------------|---------|
B|-----1------1------1------1--|-----1------1------1------1--|-0-1-----|
G|---0------0------0------0----|---0------0------0------0----|-----0---|
D|-3------2------0-------------|-3------2------0-------------|-------2-|
A|----------------------3------|----------------------3------|---------|
E|-----------------------------|-----------------------------|---------|

E|-----------------------------|-----------------------------|---------|
B|-----1------1------1------1--|-----1------1------1------1--|-0-------|
G|---0------0------0------0----|---0------0------0------0----|---2-0---|
D|-3------2------0-------------|-3------2------0-------------|-------0-|
A|----------------------3------|----------------------3------|---------|
E|-----------------------------|-----------------------------|---------|

E|-----------------------------|-----------------------------|---------|
B|-----1------1------1------1--|-----1------1------1------1--|-0-1-----|
G|---0------0------0------0----|---0------0------0------0----|-----0---|
D|-3------2------0-------------|-3------2------0-------------|-------2--|
A|----------------------3------|----------------------3------|---------|
E|-----------------------------|-----------------------------|---------|

E|-----------------------------|-----------------------------|-0-|
B|-----1------1------1------1--|-----1------1------1------1--|-1-|
G|---0------0------0------0----|---0------0------0------0----|-0-|
D|-3------2------0-------------|-3------2------0-------------|-2-|
A|----------------------3------|----------------------3------|-3-|
E|-----------------------------|-----------------------------|---|

Tabbed by EAGLE \m/


Tap to rate this tab
# A B C D E F G H I J K L M N O P Q R S T U V W X Y Z