Song name
# A B C D E F G H I J K L M N O P Q R S T U V W X Y Z

Misc Cartoons - Tsubasa Chronicles - Lost Wings tab

----------------------------------------------------------------
	      Lost Wings - Tsubasa Chronicles
----------------------------------------------------------------
Tabbed by: Pat
Email:seidel_patrick87@yahoo.com


Most of the chords are sweeps, I just didn't feel like tabbing them out, just in case
don't know what a sweep is, take for instance, the first thing you play you would move
hand down the specified strings one at a time (ie: 3rd string second fret, 2nd string 
fret, 1st string first fret) You'll understand if you listen to the song. Good luck.
Tuning: Standard (EADGBe)

e|-1-0-1-1---1-3---3-6-5-3-1-0-1-1---1-1-0-0-------------------|
B|-1-------1---5-1---------3-----------1--3--------------------|
G|-2-----------------------2-----------0--3--------------------|
D|-------------------------------------------------------------|
A|-------------------------------------3-----------------------|
E|-------------------------------------------------------------|

e|-1-0-1-1---1-3---3-6-5-3-1-0-1-1---0-1-0---1-----------------|
B|-1-------1---5-1---------3---------1---1-1-------------------|
G|-2-----------------------2---------2---2-2-3-----------------|
D|-------------------------------------------------------------|
A|-------------------------------------------------------------|
E|-------------------------------------------------------------|

e|-8-8-8---1-8-8-6-5-1-3-3-5-6-5-----0-1-0-3-1-----------------|
B|-6-6-3-3-----6-----3---5-----6---3---------------------------|
G|-------------7-3---------------2-----2-0-3-2-----------------|
D|-------------------------------------------------------------|
A|-------------------------------------------------------------|
E|-------------------------------------------------------------|

e|---0-1---0---1-8-8---1---1-8-----8-6-5-0-3-4---4-3-1---------|
B|-3----1-3--1-------3---3-----3-1-----6-----6---6-4-2-2-------|
G|-----------2-3---------------------3-------6---6-------------|
D|---------------------------------------------6---------------|
A|-------------------------------------------------------------|
E|-------------------------------------------------------------|

e|-6---6-4-3-1-------------------------------------------------|
B|-8-4---6-4-1----1-4------------------------------------------|
G|-8------------3----------------------------------------------|
D|-------------------------------------------------------------|
A|-------------------------------------------------------------|
E|-------------------------------------------------------------|

e|-1-0-1-3---3-6-5-3-5-5---5-3-1---0-1-3-----1-0-1-1---5-------|
B|-1-----5-1---6---5---6-1-1-5-3-------3---3---1---1---6-------|
G|-2-----------7---------------2-------3-3---0-3-----2-5-------|
D|-------------------------------------------------------------|
A|-------------------------------------------------------------|
E|-------------------------------------------------------------|

e|-3-1---0-1-3---3-6-5-3-5-5---5-3-1-0-1-3--------1------------|
B|---3-------3-1---6---5-6-6-2-6-5-3-----3-3---1-3-------------|
G|---2-------3-----7---6-------7---3-----3---3-----------------|
D|-------------------------------------------------------------|
A|-------------------------------------------------------------|
E|-------------------------------------------------------------|

e|-0-1-1-1-3-4-3-4-6-8--1-5-8---------8------------------------|
B|-----1-----6-----6-8---------------10------------------------|
G|-3---2-----6-----8-------------------------------------------|
D|---------1---------------------------------------------------|
A|-------------------------------------------------------------|
E|-------------------------------------------------------------|

I spent aproximately 2 hours making this tab, this is the first
tab I've submitted so send me an e-mail if I got anything wrong
or if you have any comments.
Tap to rate this tab
 
# A B C D E F G H I J K L M N O P Q R S T U V W X Y Z