Song name
# A B C D E F G H I J K L M N O P Q R S T U V W X Y Z

Misc Cartoons - Gummie Bears Theme tab

Verse 2

e---------------|--------------|----------------|------------|-------------------|
b---------------|-8-10-11------|-8--------------|------------|-------------------|
g-7---7-10-7-10-|---------10-7-|---10-8-10-7-10-|-8-7----10--|-------------------|
d---8-----------|--------------|----------------|-----8------|-------------------|
a---------------|--------------|----------------|------------|-------------------|
e---------------|--------------|----------------|------------|-------------------|

e---------------|--------------|----------------|-------------|------------------|
b---------------|-8-10-11------|-8--------------|-8-10-11-13~-|------------------|
g-7---7-10-7-10-|---------10-7-|---10-8-10-7-10-|-------------|------------------|
d---8-----------|--------------|----------------|-------------|------------------|
a---------------|--------------|----------------|-------------|------------------|
e---------------|--------------|----------------|-------------|------------------|

Chorus

e-10-11-13~-|-13~-13-13-11-10----|-10-13-----|-13~-13-13-11-10----|--------------|
b-----------|-----------------13-|-------11~-|-----------------13-|--------------|
g-----------|--------------------|-----------|--------------------|--------------|
d-----------|--------------------|-----------|--------------------|--------------|
a-----------|--------------------|-----------|--------------------|--------------|
e-----------|--------------------|-----------|--------------------|--------------|

e-10-13-----|-13-11-10----10----|----13----13-|----15-13-11-13-18/---------------|
b-------11~-|----------13----11-|-11----11----|-11-------------------------------|
g-----------|-------------------|-------------|----------------------------------|
d-----------|-------------------|-------------|----------------------------------|
a-----------|-------------------|-------------|----------------------------------|
e-----------|-------------------|-------------|----------------------------------|

Verse 2

e---------------|--------------|----------------|--------------|-----------------|
b---------------|-8-10-11------|-8--------------|--------------|-----------------|
g-7---7-10-7-10-|---------10-7-|---10-8-10-7h10-|-8-7------10~-|-----------------|
d---8-----------|--------------|----------------|-----10p8-----|-----------------|
a---------------|--------------|----------------|--------------|-----------------|
e---------------|--------------|----------------|--------------|-----------------|

e---------------|--------------|----------------|-------------|------------------|
b---------------|-8-10-11------|-8--------------|-8-10-11-13~-|------------------|
g-7---7-10-7-10-|---------10-7-|---10-8-10-7-10-|-------------|------------------|
d---8-----------|--------------|----------------|-------------|------------------|
a---------------|--------------|----------------|-------------|------------------|
e---------------|--------------|----------------|-------------|------------------|

Chorus

e-10-11-13~-|-13~-13-13-11-10----|-10-13-----|-13~-13-13-11-10----|--------------|
b-----------|-----------------13-|-------11~-|-----------------13-|--------------|
g-----------|--------------------|-----------|--------------------|--------------|
d-----------|--------------------|-----------|--------------------|--------------|
a-----------|--------------------|-----------|--------------------|--------------|
e-----------|--------------------|-----------|--------------------|--------------|

e-10-13-----|-13-11-10----10----|----13----13-|----15-13-11-13-18/---------------|
b-------11~-|----------13----11-|-11----11----|-11-------------------------------|
g-----------|-------------------|-------------|----------------------------------|
d-----------|-------------------|-------------|----------------------------------|
a-----------|-------------------|-------------|----------------------------------|
e-----------|-------------------|-------------|----------------------------------|
Tap to rate this tab
 
# A B C D E F G H I J K L M N O P Q R S T U V W X Y Z