Song name
# A B C D E F G H I J K L M N O P Q R S T U V W X Y Z

Misc Cartoons - Flintstones Theme tab

  Song: (Meet the) Flintsotones
  Tabber: André Hedesand

  Listen to the song to get right Rythm.

E|------------3--0------------------------------------------|
B|---3--3-----3--1--3--3-----3--1--0-0-1-3---3--5--0--------|
G|---4--0-----------4--0-----4--2------------0--2--0--------|   x 2
D|----------------------------------------------------------|
A|----------------------------------------------------------|
E|----------------------------------------------------------|

E|---2-----3-2-2-0-0-2-0------0------2-0-0-----0------------|
B|---3--0---------------------2------------3-3---3----------|
G|------1------------------------2--------------------------|
D|-------------------------------2--------------------------|
A|----------------------------------------------------------|
E|----------------------------------------------------------|

E|------------3--0------------------------------------------|
B|---3--3-----3--1--3--3-----3--1--0-0-1-3------------------|
G|---4--0-----------4--0-----4--2------------0--2-----------|
D|-------------------------------------------2--4-----------|
A|----------------------------------------------------------|
E|----------------------------------------------------------|

E|-----------------------3--5--3----------------------------|
B|---0-1-3--------0-1-3--5--3--5----------------------------|
G|----------0--2--------------------------------------------|
D|----------2--4--------------------------------------------|
A|----------------------------------------------------------|
E|----------------------------------------------------------|
Tap to rate this tab
 
# A B C D E F G H I J K L M N O P Q R S T U V W X Y Z