Song name
# A B C D E F G H I J K L M N O P Q R S T U V W X Y Z

Misc Cartoons - South Park - Timmy And The Lords Of The Underworld tab

The other tabs of this song were created by Timmy himself. That's the only
possible explanation.  This song is too awesome to be played wrong.
Simple solution: Don't write tabs if you're tone deaf! please.
 
You might have to tune down a half step to get it true to the recording, I
was too lazy to plug in and tune up tho. Same goes for the pinch harmonic.

Verse:
e|-----------------------------------|
B|-----------------------------------|
G|-----------------------------------|
D|-------------------------------2---|
A|------------------0--0-2p0-3h4-----|
E|--0--0-2p0-3p0-4-----------------0-|

Chorus:
    C5   G5   A5
e|---------------------|
B|---------------------|
G|-5555----------------|
D|-5555-5555-7777-7777-|
A|-3333-5555-7777-7777-|
E|------3333-5555-5555-|

Fills:
Before chorus its:
e|-------------------------|
B|-------------------------|
G|-------------------------|
D|-------------------------|
A|--------0-3p0-2p0--------|
E|-iliketothrowina-(3p2p0)-itsbadass!|

between riffs throw in some falls on the 6th string:
pick em' or just finger it on the fret if your distortions high enough
(it should be)
e|-----------|
B|-----------|
G|-----------|
D|-----------|
A|-----------|
E|----12\----|

also, throw in some nasty pinch harmonics!  You can figure them out for
yourselves, but its equivalent to 3 or 4 octaves above E or something.

Enjoy,

Timmah! Livin' a lie!

-G
Tap to rate this tab
# A B C D E F G H I J K L M N O P Q R S T U V W X Y Z