Song name
# A B C D E F G H I J K L M N O P Q R S T U V W X Y Z

Misc Cartoons - Swat Kats - Season 2 Theme tab

Swat Kats Season 2

Tab by Sk8ter1344

Tuning:Standard(EADGBe)


Lead Guitar
e|-------------------------------------------------------------|
B|-------------------------------------------------------------|
G|-------9---------7-----------7-------------------------------|
D|--/7-----10-10--------10-10------10--9-----10--5/7-----------|
A|-------------------------------------------------------------|
E|-------------------------------------------------------------|

e|-------------------------------------------------------------|
B|-------------------------------------------------------------|
G|-------9---------7-----------7-----------------/12-----------|
D|--/7-----10-10--------10-10------10--9-----10----------------|
A|-------------------------------------------------------------|
E|-------------------------------------------------------------|

e|-------------------------------------------------------------|
B|--10---------12-10-12----12/10------10--------12-10----10----|
G|------12-12----------------------------12-12--------12-------|
D|-------------------------------------------------------------|
A|-------------------------------------------------------------|
E|-------------------------------------------------------------|

e|-------------------------------------------------------------|
B|--13---------15-13-15-------15-------------------------------|
G|-------14-14-------------------------------------------------|
D|-------------------------------------------------------------|
A|-------------------------------------------------------------|
E|-------------------------------------------------------------|

e|-------------------------------------------------------------|
B|-------12-------10-----------10------------------------------|
G|--/9------12-12--------12-12------12-11-12-------------------|
D|------------------------------------------------12/14--------|
A|-------------------------------------------------------------|
E|-------------------------------------------------------------|

e|-------------------------------------------------------------|
B|-------12-------10-----------10------------------------------|
G|--/9------12-12--------12-12------12-11-12------15-----------|
D|-------------------------------------------------------------|
A|-------------------------------------------------------------|
E|-------------------------------------------------------------|

e|-------------------------------------------------------------|
B|--10---------12-10-12----12/10------10--------12-10----10----|
G|------12-12----------------------------12-12--------12-------|
D|-------------------------------------------------------------|
A|-------------------------------------------------------------|
E|-------------------------------------------------------------|

e|----------------------------17-------------------------------|
B|--13---------15-13-15-------17--------8-10-8-8-10------------|
G|-------14-14-------------------------------------------------|
D|-------------------------------------------------------------|
A|-------------------------------------------------------------|
E|-------------------------------------------------------------|
Tap to rate this tab
 
# A B C D E F G H I J K L M N O P Q R S T U V W X Y Z