Song name
# A B C D E F G H I J K L M N O P Q R S T U V W X Y Z

Misc Cartoons - K-on - Heart Goes Boom tab

-------------------------------------------------------------------------------
			     Heart Goes Boom!! - K-ON! (sung by Youko Hisaka)
-------------------------------------------------------------------------------
Tabbed by: Nokogi
Email:eath_online@gmx.de

Tuning: Standard (EADGBE)

E|------------|----------------------------------------------------------------|------|---|
B|------------|----------------------------------------------------------------|------|---|
G|------------|----------------------------------------------------------------|-wait-|---|
D|------------|-6-6-xx--------4-4-xx----------6-6-xx--------4-4---9--(9)(9)(9)-|--4---|---|
A|--/xxxxx-xx-|-4-4-xx-6-6-xx-2-2-xx-4--444---4-4-xx-6-6-xx-2-2---7--(7)(7)(7)-|-tacts|---|
E|--/xxxxx-xx-|--------4-4-xx--------2--222----------4-4-xx--------------------|------|---|


E|------------|----------------------------------------------------------------------|
B|------------|----------------------------------------------------------------------|
G|------------|----------------------------------------------------------------------|
D|---xxxxx-xx-|-6-6-xx--------4-4-xx----------6-6-xx--------4-4---9--(9)(9)(9)-------|
A|--/xxxxx-xx-|-4-4-xx-6-6-xx-2-2-xx-4--444---4-4-xx-6-6-xx-2-2---7--(7)(7)(7)-------|
E|------------|--------4-4-xx--------2--222----------4-4-xx--------------------------|


E|-----------------------------------------------------------|
B|-----------------------------------------------------------|
G|-----------------------------------------------------------|
D|-6-6-xx--------4-4-xx----------6-6-xx--------6-6-6-6--6-5--|
A|-4-4-xx-6-6-xx-2-2-xx-4--444---4-4-xx-6-6-xx-4-4-4-4--4-3--|
E|--------4-4-xx--------2--222----------4-4-xx---------------|

Pre-chorus
E|--13------14-------13-------11-------13------14---------------------|
B|-----11------11------------------------11-------11------------------|
G|----------------------13-------13-----------------------------------|
D|--------------------------------------------------------------------|
A|------------------------------------------------------\-------------|
E|------------------------------------------------------\slide down---|

E|-----------------------------------------------------------|
B|-----------------------------------------------------------|
G|-----------------------------------------------------------|
D|---------------------------------------------------3--4-5--|
A|--6-6-x-x-x-x-x-x-x-x-x----4-5-6--6-x-x-x-x-6-6-x--1--2-3--|
E|--4-4-x-x-x-x-x-x-x-x-x----2-3-4--4-x-x-x-x-4-4-x----------|
Pre-chorus end

Refrain  (strum the chords how often you want)
E|----------------------------------------------------------------------------------------------|
B|-------------------------------------------------------------------------7777777777---9999999-|
G|-------------------------------------------------------------------------6666666666---8888888-|
D|-6----8--------------6----8----10---------/6----8--------------6----8-------------------------|
A|-4----6----3----4----4----6----8----6-----/4----6----3----4----4----6-------------------------|
E|-----------1----2-------------------4----------------1----2-----------------------------------|

first refrain end
E|-------------------------\x\x\x\x\--go-down-with-the-fingers-------|
B|-------------------------x\x\x\x\x\-while-hammering-with-the-plec--|
G|-------------------------------------------------------------------|
D|-66-6\-------------------------------------------------------------|
A|-44-4\slide down---------------------------------------------------|
E|-------------------------------------------------------------------|


E|-----------------------------------------------------------------------|
B|-----------------------------------------------------------------------|
G|-----------------------------------------------------------------------|
D|-6-6-xx--------4-4-xx----------6-6-xx--------4-4---9--(9)(9)(9)--(6)\--|
A|-4-4-xx-6-6-xx-2-2-xx-4--444---4-4-xx-6-6-xx-2-2---7--(7)(7)(7)--(4)\--|
E|--------4-4-xx--------2--222----------4-4-xx---------------------------|

2nd Verse
E|--------------------------------------------------------------------------------|
B|-6-6-4-4-4-4------6-6-4-4-4-4-5-5---6-6-4-4-4-4------4-------4--------4---------|
G|-------------6-6--------------------------------6--6---6---6---6---6-----6------|
D|--------------------------------------------------------------------------------|
A|--------------------------------------------------------------------------------|
E|--------------------------------------------------------------------------------|

E|----------------------------------------------------------------------|
B|----------------------------------------------------------------------|
G|----------------------------------------------------------------------|
D|-6-6-xx--------4-4-xx----------6-6-xx--------4-4---9--(9)(9)(9)-------|
A|-4-4-xx-6-6-xx-2-2-xx-4--444---4-4-xx-6-6-xx-2-2---7--(7)(7)(7)-------|
E|--------4-4-xx--------2--222----------4-4-xx--------------------------|


E|-----------------------------------------------------------|
B|-----------------------------------------------------------|
G|-----------------------------------------------------------|
D|-6-6-xx--------4-4-xx----------6-6-xx--------6-6-6-6--6-5--|
A|-4-4-xx-6-6-xx-2-2-xx-4--444---4-4-xx-6-6-xx-4-4-4-4--4-3--|
E|--------4-4-xx--------2--222----------4-4-xx---------------|

-
jump to: Pre-Chorus + Refrain
-

after that:
E|---------------------------------------------------------|
B|---------slide-to-this-note,-hold-it-a-little-bit--------|
G|---------then-slide-up-as-far-as-you-can-----------------|
D|---------------------------------------------------------|
A|----/4~-/------------------------------------------------|
E|---------------------------------------------------------|


E|---------------------------------------------------------|
B|----solo-time--------------------------------------------|
G|---------------------------------------------------------|
D|---------------------------------------------------------|
A|---------------------------------------------------------|
E|---------------------------------------------------------|


after the solo part
E|---------------------------------------------------------------------------------------------|
B|---------------------------------------------------------------------------------------------|
G|---------------------------------------------------------------------------------------------|
D|-------------------------------------------------------------------------3-4---6\--xxxx-8----|
A|--6-(x)-(x)-(x)-(x)-(x)-(x)-(x)-(x)-(x)---4-6-4-5-66--x-x-x-x-6-6-x-x-7--1-2---4\--xxxx-6----|
E|--4-(x)-(x)-(x)-(x)-(x)-(x)-(x)-(x)-(x)---2-4-2-3-44--x-x-x-x-4-4-x-x-5----------------------|

and the rest of the refrain
E|--------------------------------------------------------------------------------------------|
B|---------------------------------------------------------------------7777777777---9999999---|
G|---------------------------------------------------------------------6666666666---8888888---|
D|---------------6----8----10---------/6----8--------------6----8-----------------------------|
A|-----3----4----4----6----8----6-----/4----6----3----4----4----6-----------------------------|
E|-----1----2-------------------4----------------1----2---------------------------------------|

E|----------------------------------------------------------------------|
B|----------------------------------------------------------------------|
G|----------------------------------------------------------------------|
D|-6-6-xx--------4-4-xx----------6-6-xx--------4-4---9--(9)(9)(9)-------|
A|-4-4-xx-6-6-xx-2-2-xx-4--444---4-4-xx-6-6-xx-2-2---7--(7)(7)(7)-------|
E|--------4-4-xx--------2--222----------4-4-xx--------------------------|

E|----------------------------------------------------------------------|
B|----------------------------------------------------------------------|
G|----------------------------------------------------------------------|
D|-6-6-xx--------4-4-xx----------6-6-xx--------4-4---9--(9)(9)(9)-------|
A|-4-4-xx-6-6-xx-2-2-xx-4--444---4-4-xx-6-6-xx-2-2---7--(7)(7)(7)-------|
E|--------4-4-xx--------2--222----------4-4-xx--------------------------|

E|---------------------------------------------------------|
B|---------------------------------------------------------|
G|---------------------------------------------------------|
D|-4-5-6~/-\-----(slide-up-and-then-down)------------------|
A|-2-3-4~/-\-----------------------------------------------|
E|---------------------------------------------------------|

That's it!
Have fun playing this cool song!


************************************

| /   slide up
| \   slide down
| h   hammer-on
| p   pull-off
| ~   vibrato
| +   harmonic
| x   Mute note
| b   Bend
| pb  Pre-bend
| br  Bend release
| pbr Pre-bend release
| brb Bend release bend

************************************
Tap to rate this tab
# A B C D E F G H I J K L M N O P Q R S T U V W X Y Z