Song name
# A B C D E F G H I J K L M N O P Q R S T U V W X Y Z

Misc Cartoons - Azumanga Daioh Theme tab

The theme that shows up after the commercials block.

(for classic guitar)

Low part:

     |--3-|       |--3-|          |--3-|       |--3-|        
     Q    E  Q    Q    E  Q       Q    E  Q    Q    E  Q     
E||--------------------0-------|----------------------------|
B||----------1----3-------1----|----------1----1----1--1----|
G||--0----0--------------------|--2----0--------------------|
D||----------------------------|---------------0------------|
A||----------3----2-------0----|-----------------------3----|
E||----------------------------|--1-------0-----------------|

High part:

  |--3-|        |--3--|           |--3-|                      
  Q    E  Q     Q     E  Q        Q    E   Q     Q     Q      
----------8----10----12--8----|-----------13----13----12----||
--8----8----------------------|--10----8--13----13----13----||
------------------------------|-----------------------------||
------------------------------|-----------------------------||
------------------------------|-----------------------------||
------------------------------|-----------------------------||
Tap to rate this tab
# A B C D E F G H I J K L M N O P Q R S T U V W X Y Z