Song name
# A B C D E F G H I J K L M N O P Q R S T U V W X Y Z

Misc Cartoons - Phineas And Ferb Theme tab

                               Phineas and Ferb Theme
                                Tabbed by Atavener

There's a hundred.....

E--------4---------4---------4----------4-----|
B------4--4------4--4------3--3--------4--4---|
G----5-----5---5-----5---5-----5-----5-----5--|
D---------------------------------------------|
A--4---------3----------1----------4----------|
E---------------------------------------------|

But the common problem with our generation
E--------4-----------4--------|
B------4--4--------4---4------|
G----5------5----5-------5----|
D-----------------------------|
A--4-----------3--------------|
E-----------------------------|

is finding a good way to spend it  (like maybe)
E-------4----------------------|
B------4-4---------------------|
G----5----5--------------------|
D------------------------------|
A--1-----------6---------------|
E------------------------------|

Building a rocket or fighting...

E --4-4-4-4-4-4-4-4-6-6-6-6-6-6-6-6-----------------4-4-4-4-4-4--------|
B --4-4-4-4-4-4-4-4-6-6-6-6-6-6-6-6-4-4-4-4-4-4-4-4-4-4-4-4-4-4--------|
G --5-5-5-5-5-5-5-5-7-7-7-7-7-7-7-7-5-5-5-5-5-5-5-5-5-5-5-5-5-5--5-4-3-|
D --6-6-6-6-6-6-6-6-8-8-8-8-8-8-8-8-6-6-6-6-6-6-6-6-6-6-6-6-6-6--6-5-4-|
A ---------------------------------------------------------------6-5-4-|
E ---------------------------------------------------------------4-3-2-|

Surfing tidal waves, creating nanobots...
E --------------------------------------------------------------|
B --------------------------------------------------------------|
G -2-2-2-2-2-2-2-2-2-2---7-7-7-7-7-7-7-7-7-7--------------------|
D -3-3-3-3-3-3-3-3-3-3---8-8-8-8-8-8-8-8-8-8----(~9)------------|
A -3-3-3-3-3-3-3-3-3-3---8-8-8-8-8-8-8-8-8-8--------------------|
E -1-1-1-1-1-1-1-1-1-1---6-6-6-6-6-6-6-6-6-6--------------------|

E ---------------------------------------------------------------|
B ---------------------------------------------------------------|
G -4-4-4-4-4-4-4-4-4-4--9--9--9--9--9--9--9--9--9--9-------------|
D -5-5-5-5-5-5-5-5-5-5-10-10-10-10-10-10-10-10-10-10-------------|
A -5-5-5-5-5-5-5-5-5-5-10-10-10-10-10-10-10-10-10-10-------------|
E -3-3-3-3-3-3-3-3-3-3--8--8--8--8--8--8--8--8--8--8-------------|


driving your sister insane
E ----------------------------|
B ----------------------------|
G -12-12-12-12-12-12-12-12-12-|
D -13-13-13-13-13-13-13-13-13-|
A -13-13-13-13-13-13-13-13-13-|
E -11-11-11-11-11-11-11-11-11-|


As you can see there's a whole lot...

E -----------------------------------|
B -4-4-4-4-4-4-4-4--6-6-6-6-6-6-6----|
G -5-5-5-5-5-5-5-5--7-7-7-7-7-7-7----|
D -6-6-6-6-6-6-6-6--8-8-8-8-8-8-8----|
A -----------------------------------|
E -----------------------------------|

So stick with us cause...
E ----------------------------------------------|
B ----------------------------------------------|
G -5-5--9--9-14-14-13--9-7--7--7----------------|
D -6-6-10-10-15-15-14-10-8--8--8----------------|
A -6-6-10-10-15-15-14-10-8--8--8----------------|
E -4-4--8--8-13-13-12--8-6--6--6----------------|

"so stick with us cause.." (again)

E ----------------------------------------------|
B ----------------------------------------------|
G -5-5--9--9-14-14-13--9-7--7-12--9--5555555----|
D -6-6-10-10-15-15-14-10-8--8-13-10--6666666----|
A -6-6-10-10-15-15-14-10-8--8-13-10--6666666----|
E -4-4--8--8-13-13-12--8-6--6-11--8--4444444----|

"Mom! Phineas and Ferb are making a title sequence!"

E-------|
B-------|
G-17(S)-
D-18(S)-
A-18(S)-
E-16(S)-

That's it!
Thanks, please rate it!!
Tap to rate this tab
# A B C D E F G H I J K L M N O P Q R S T U V W X Y Z