Song name
# A B C D E F G H I J K L M N O P Q R S T U V W X Y Z

Misc Cartoons - Pingu Theme tab

Pingu
Main Theme
Guitar Tab 
Standard Tuning
Tabbed By Jonathan Mack

b Half Bend

0:00
|8-----------|8-------10-8-->
|--10-11-10-8|--10-11------->
|------------|-------------->
|------------|-------------->
|------------|-------------->
|------------|-------------->

|10-13-12-10----13----------------------20-->
|------------13----13-11-10-11-10----13----->
|---------------------------------12-------->
|------------------------------------------->
|------------------------------------------->
|------------------------------------------->

|---------13|------------|
|11-10-13---|--12b-12b---|
|-----------|------------|
|-----------|------------| x1
|-----------|------------|
|-----------|------------|

Tap to rate this tab
# A B C D E F G H I J K L M N O P Q R S T U V W X Y Z