Song name
# A B C D E F G H I J K L M N O P Q R S T U V W X Y Z

Misc Cartoons - X-men Theme tab

----------------------------------------------------------------------------
X-men: Animated Series Theme - Misc. Cartoons
----------------------------------------------------------------------------
Tabbed by: Andrew
Email:andrew@hitpcwork.net

Tuning: e B G D A E

**Play this whole thing twice**
(x1)
e|-----------------|----------------|--------------------------------------|
B|-----------------|----------------|--------------------------------------|
G|--0-5-7-8-7-5-0--|--0-5-7-8-7-5---|--0-5-7-8-7-5-8~~--7p5----------------|
D|-----------------|-------------6--|--------------------------------------|
A|-----------------|----------------|--------------------------------------|
E|-----------------|----------------|--------------------------------------|
(x1)
e|-------------------------------------------------------------------------|
B|-------------------------------------------------------------------------|
G|------10-12-13-12--------10-12-13-12-10-------0-5-7-8-7-5-8~~--7p5-------|
D|---10-------------10--10----------------11-------------------------------|
A|-------------------------------------------------------------------------|
E|-------------------------------------------------------------------------|


(x1)
e|-------------------------------------------------------------------------|
B|-------------------------------------------------------------------------|
G|-------------------------------------------------------------------------|
D|--6-5-3-6-5-3-6-5-3-6-5-3--8-6-5-8-6-5-8-6-5-8-6-5--10-8-6-10-8-6-10-8-6-|
A|-------------------------------------------------------------------------|
E|-------------------------------------------------------------------------|

e|-------------------------------------------------------------------------|
B|-------9-8---------------------------------------------------------------|
G|-----8-------------------------------------------------------------------|
D|--10---------------------------------------------------------------------|
A|-------------------------------------------------------------------------|
E|-------------------------------------------------------------------------|
Return to top once.

After Repeat, Play:
e|-------------------------------------------------------------------------|
B|--------------------8----------------------------------------------------|
G|--0-5-7-8-7-5-8~--7------------------------------------------------------|
D|-------------------------------------------------------------------------|
A|-------------------------------------------------------------------------|
E|-------------------------------------------------------------------------|
 

Sounds close to me. Listen to the song for the tempo/order. If you n

************************************
| p   pull-off
| ~   vibrato
************************************
Tap to rate this tab
# A B C D E F G H I J K L M N O P Q R S T U V W X Y Z