Song name
# A B C D E F G H I J K L M N O P Q R S T U V W X Y Z

Misc Cartoons - Cow And Chicken Theme tab

Mama me dice pollito / mama me dice vaca... cuando papa nos adopto mama se desmayó

Guitarra 2
e---------------------------------|
B---------------------------------|
G---------------------------------|
D-3-3-4-4-5-5-6-6-6\--------------|
A-3-3-4-4-5-5-6-6-6\--------------|
E-1-1-2-2-3-3-4-4-4\--------------|

Guitarra 1 

e8--5----88--5--5--------8---5--5-----------------|
B7--5----99--5--5-7-(5)--9---5--5-7--5------------|
G-----------------7-(5)-----------7--5------------|
D-------------------------------------------------|
A-------------------------------------------------|
E-------------------------------------------------|

Guitarra 2

e-----------------|
B-----------------|
G-----------------|
D-----------------| varias veces rapido
A-3---------------|
E---3--1----------|
 
Vaca !

e15---12----1515--1212--10----15--1212---------------------|
B15---12----1515--1212--10----15--1212--15-12/-------------|
G---------------------------------------15-12/-------------|
D----------------------------------------------------------|
A----------------------------------------------------------|
E----------------------------------------------------------|

Guitarra 2

e-----------------|
B-----------------|
G-----------------|
D-2--1--0---------| varias veces rapio
A-----------------|
E-----------------|


pollito

e8--5----88--5--5/-----8---5--5/----------------|
B9--5----99--5--5/7----9---5--5/7--5------------|
G-----------------7-------------7--5------------|
D-----------------------------------------------|
A-----------------------------------------------|
E-----------------------------------------------|

Vaca y pollito

e15---12----1515--1212--10----------------------------------------|
B15---12----1515--1212--10-12-12-12-12-12-12/---------------------|
g--------------------------12-12-12-12-12-12/---14b-------14------|
d-----------------------------------------------------------------|
a-----------------------------------------------------------------|
E-----------------------------------------------------------------|

Final rapido 
e---------------------------------------------------------------|
B-----------------------------15-14-12--------------------------|
G-12h14-12h14-12h14-12h14p12h15---------15-14---12--------------|
D------------------------------------------------14--14/9/14----| 
A---------------------------------------------------------------|
E---------------------------------------------------------------|


Tap to rate this tab
# A B C D E F G H I J K L M N O P Q R S T U V W X Y Z