Song name
# A B C D E F G H I J K L M N O P Q R S T U V W X Y Z

Misc Cartoons - Beast Wars Theme tab

BEAST WARS

e|----------------------------------|
B|----------------------------------|
G|----------------------------------|
D|----------------------------------|
A|-----4---3-4-----4---3-4-----5-4--|
E|-3-3---3-----3-3---3-----3-3------|

e|----------------------------------|
B|----------------------------------|
G|----------------------------------|
D|----------------------------------|
A|-----4---3-4-----4---3-4-----6-5--|
E|-3-3---3-----3-3---3-----3-3------|

e|-----------------------------------------------------|
B|-----------------------------------------------------|
G|-----------------------------------------------------|
D|-----------------------------3-2-------------3-2-4-5-|
A|-----4---3-4-----4---3-4---------4-3-5-4-6-5---------|
E|-3-3---3-----3-3---3-----3-3-------------------------|

Beast wars!

Beast wars!

e|----------------------------------|
B|----------------------------------|
G|----------------------------------|
D|----------------------------------|
A|-----6---5-6-----6---5-6-----7-6--|
E|-5-5---5-----5-5---5-----5-5------|

e|----------------------------------|
B|----------------------------------|
G|----------------------------------|
D|----------------------------------|
A|-----6---5-6-----6---5-6-----8-7--|
E|-5-5---5-----5-5---5-----5-5------|

e|------------------------------------------------------|
B|------------------------------------------------------|
G|------------------------------------------------------|
D|-----------------------------5-4-------------5-4-6-7--|
A|-----6---5-6-----6---5-6---------6-5-7-6-8-7----------|
E|-5-5---5-----5-5---5-----5-5--------------------------|

hehe..


NITRAM
05-18-10
7:03 PM
Tap to rate this tab
# A B C D E F G H I J K L M N O P Q R S T U V W X Y Z