Song name
# A B C D E F G H I J K L M N O P Q R S T U V W X Y Z

Misc Cartoons - Phineas And Ferb - What Do It Do tab

Band - Phineas And Ferb
Song - What Do It Do?
Episode - What Do It Do?
Tabbed By: SumFX (Tyler Freear)

Very Funny Song, I Loved The Riff So I Figured The Song Out.

Verse
|----------------------|
|----------------------|
|----------------------|
|-7--99--5-5--9-7--9-7-|
|-7--99--5-5--9-7--9-7-|
|-5--77--3-3--7-5--7-5-|

Chorus
|--------------------------------|
|--------------------------------|
|-77777777-----------------------|
|-77777777-55555555-7-77-77-7-7--|
|-55555555-55555555-7-77-77-7-7--|
|----------33333333-5-55-55-5-5--|

Outro
|-----------------|
|-----------------|
|-----------------|
|-7--99--55--77---|
|-7--99--55--77---|
|-5--77--33--55---|

Rate and Comment Please!
Tap to rate this tab
# A B C D E F G H I J K L M N O P Q R S T U V W X Y Z