Song name
# A B C D E F G H I J K L M N O P Q R S T U V W X Y Z

Misc Cartoons - Pink Panther Theme tab

In my opinion, i think this is a better version than the other ones posted in here
 /  slide up
 \  slide down
 h  hammer-on
 p  pull-off
 ~  vibrato
 x  Mute note
 b  bend

e|---------------|
B|---------------|
G|---------------|
D|-4/5-6/7-------|     X2
A|-4/5-6/7-------|
E|---------------|

e|------------------x1x0------0-----------------|
B|-x0--x1-------x0x1--------1---4~~~-3-1--------|
G|----------x1x2----------2-------------2-0-2/--|
D|----------------------------------------------|
A|----------------------------------------------|
E|----------------------------------------------|

e|----------------------------x1x0-------5-4---2-3-4-5----|
B|----------x0--x1--------x0x1--------1-4-----------------|
G|-x1--x2------------x1x2---------------------------------|
D|--------------------------------------------------------|
A|--------------------------------------------------------|
E|--------------------------------------------------------|

e|--3\5-3---------------------------------------------------|
B|-------5-3p1---------------1------------------------------|
G|------------2-b7-b7-b7-b7---2-0-2-2-2p0-------------------|
D|---------------------------------------2p0----------------|
A|------------------------------------------3p0-------------|
E|---------------------------------------------3\5~---------|


e|---------------|
B|---------------|
G|---------------|
D|-4/5-6/7-------|     
A|-4/5-6/7-------|
E|---------------|
Tap to rate this tab
 
# A B C D E F G H I J K L M N O P Q R S T U V W X Y Z