Misc Cartoons - Snow White - Someday My Prince Will Come tab

Snow White- Someday My Prince Will Come

This song has turned into something of a jazz standard, and this is how
I learned to play the jazz version of this

Standard
3/4

   e ----------|--6-------|--5------|--3------|--------|--11----7--|
   b --6-------|-------7--|--6---8--|--4------|--8-----|-----------|
   G --7-------|--5-------|--7------|--4------|--8-----|--10-------|
   D --7-------|--4-------|--5------|--3------|--8-----|--9--------|
   A ----------|--5-------|---------|---------|--------|--10-------|
   E --6-------|----------|---------|---------|--------|-----------|

                            
   e --10---8--|--8--10-11--|--13-13-13---|--17-17-17---|---------|
   b --8-------|--7---------|-------------|--14---------|--18-----|
   G --8-------|--8---------|-------------|--14---------|--15-----|
   D --8-------|--7---------|--12---------|--14---------|--15-----|
   A ----------|------------|--13---------|-------------|--15-----|
   E ----------|------------|-------------|-------------|---------|


   e ----10-11-|--13-13-13--|--17-17-17---|-------------|
   b ----------|------------|--14---------|--18---------|
   G ----------|------------|--14---------|--15---------|
   D ----------|--12--------|--14---------|--15---------|
   A ----------|--13--------|-------------|--15---------|
   E ----------|------------|-------------|-------------|


   e ----------|--6--------|--5--------|--3------|-------|--11----7--|
   b --6-------|-------7---|--6----8---|--4------|--8----|-----------|
   G --7-------|--5--------|--7--------|--4------|--8----|--10-------|
   D --7-------|--4--------|--5--------|--3------|--8----|--9--------|
   A ----------|--5--------|-----------|---------|-------|--10-------|
   E --6-------|-----------|-----------|---------|-------|-----------|


   e --10---8--|--8--10-11--|--13---13--|--20--18--|----------|--17--15--|
   b --8-------|--7---------|-----------|----------|----------|--14------|
   G --8-------|--8---------|-----------|--19------|--16-17---|--15------|
   D --8-------|--7---------|--12-------|--18------|----------|--14------|
   A ----------|------------|--13-------|----------|--18------|----------|
   E ----------|------------|-----------|----------|----------|----------|


   e --13----10--|--8---10--|--6--------|
   b --------8---|--7-------|--6--------|
   G --12----8---|--8-------|--7--------|  ...and they lived happily 
   D --13----8---|--7-------|--8--------|     ever after.
   A ------------|----------|-----------|
   E ------------|----------|-----------|

Tap to rate this tab
 
# A B C D E F G H I J K L M N O P Q R S T U V W X Y Z