Song name
# A B C D E F G H I J K L M N O P Q R S T U V W X Y Z

Misc Cartoons - Gimp - Supernothing tab

Gimp was not an unsigned band, they were signed to VICTORY RECORDS, get your act 
together ultimateguitar!


    C     Em/C      Am     G      F*      F/G     G
E|--0------0---------0-----3------1--------3------3----|
B|--1------1---------1-----0------1--------1------0----|
G|--0------0---------2-----0------2--------2------0----|
D|--2------2---------2-----0------3--------3------0----|
A|--3------2---------0-----2----------------------2----|
E|-------------------------3----------------------3----|
*i play the F beginner-style because it sounds more like the record, feel free to 
use barre F if it will help you sleep better at night. 

 C     Em/C      Am     G      F*      F/G     G

C

Em/C            Am
He wakes up sad again,
G                       F          F/G
And he wonders when the rain will end.
G
  (Maybe tomorrow.)
C      Em/C                    Am
She'll act like she don't care,
G          F          F/C        G
To her its just a game that he plays.


              C
And I'm saying:
Em/C        Am             G
 I'm a super, I'm a nothing,
            F               F/C   
I'm a no-one, going nowhere
                  G
Fast, but I don't care.
             C
But I don't care.
           Em/C          Am
I'm a super, I'm a nothing,
             F              F/C 
I'm a no-one, going nowhere
                   C
Fast, but I don't care.
G

Insert Violin solo
Repeat same chords throughout the rest of the song



All the times he said he would
She never really understood
What he meant.
What he said.
He'll find himself alone standing in the rain.

And I'm saying:
I'm a super, I'm a nothing,
I'm a no-one, going nowhere
Fast, but I don't care.
But I don't care.
I'm a super, I'm a nothing,
I'm a no-one, going nowhere
Fast, but I don't care.

insert another epic violin solo! 

Palm Mute this bad boy:
E|---------------------------------------------------------------|
B|---------------------------------------------------------------|
G|---------------------------------------------------------------|
D|----2-------2-------2------------------------------------------|
A|3-3---3-2-2---2-0-0---0---0-2-------3-----3---------2-----0-2--|
E|------------------------3-----3-1-1---1-1---1-2-3-3---3-3------|
PM================================================================ 

^^^Play that 6 times!!!

He wakes up sad again,
And he wonders when the rain will end.
(Maybe tomorrow.)
She'll act like she don't care,
To her its just a game.
(That he plays.)
All the times he said he would
She never really understood
What he meant.
(What he said.)
He'll find himself alone standing in the rain.

Hey, hey, hey, hey, hey thanks for all the sadness
Hey, hey thanks for all the madness
Hey, hey thanks for all you gave me
Hey, hey thanks for trying to save me
Hey, hey thanks for all the sadness
Hey, hey thanks for all the madness
Hey, hey thanks for trying to take me
Hey, hey thanks for all you gave me

I'm a super, I'm a nothing,
I'm a no-one, going nowhere
Fast, but I don't care.
But I don't care.
I'm a super, I'm a nothing,
I'm a no-one, going nowhere
Fast, but I don't care... 

if you have any questions or corrections feel free to email me at 
iwontreply@thetabiscorrect.ru :)have fun!
Tap to rate this tab
 
# A B C D E F G H I J K L M N O P Q R S T U V W X Y Z