Song name
# A B C D E F G H I J K L M N O P Q R S T U V W X Y Z

Misc Cartoons - Jedward - Under Pressure Ice Ice Baby chords

Highlighted       Show chord diagrams
Any queeries to Johnny8trak@gmail.com


INTRO
----------------------------------------------------|
----------------------------------------------------|
-------------------------------------------5-7------|
---5-5-5-5-5-5-0-5-5-5-5-5-5-5-0--------------------|
----------------------------------------------------|
----------------------------------------------------|

[JEDWARD] Yo VIP Let's kick it!

CHORUS 1
D                 A
Pressure, pushing down on me
         G                       A
Pressing down on you, no man ask for
      D                      A
Under pressure, that burns a building down
         G
Splits a family in two
     A
Puts people on streets


[NOTE: No chords for verses 1-4 in case you're worried why there's no chords because 
the rapping bits. That is all ;)]

VERSE ONE

All right stop
Collaborate and listen
Jedward’s back with a brand new invention
Something grabs a hold of me tightly
Flow like a harpoon daily and nightly
Will it ever stop?
Yo - I don't know
Turn off the lights and I'll go
To the extreme I rock a mic like a vandal
Light up a stage and wax a chump like a candle

CHORUS 2
D                 A
Pressure, pushing down on me
         G                       A
Pressing down on you, no man ask for


VERSE 2
D-D-D-D-D-Dance - Bum rush the speaker that booms
I'm killin' your brain like a poisonous mushroom
Deadly - when I play a dope melody
Anything less than the best is a felony
Love it or leave it
You better gain way
You better hit bull's eye
The kid dont play
If there was a problem
Yo I'll solve it
Check out the hook while my DJ revolves it


CHORUS 3
D                 A
Pressure, pushing down on me
         G                       A
Pressing down on you, no man ask for
      D                      A
Under pressure, that burns a building down
         G
Splits a family in two
     A
Puts people on streets
D
Oom-bah-bah-bay
A
Oom-bah-bah-bay
    G
Doo-day-uh
    A
Eeh-ay-uh, That's okay
         D
It's the terror of knowing
          A
What this world is about,
G
Watching some good friends
           A
Screaming `Let me out'
     D                 A
Pray tomorrow takes me higher
            G                 A
Pressure on people, people on streets


----------------------------------------------------|
----------------------------------------------------|
-------------------------------------------5-7------|
---5-5-5-5-5-5-0-5-5-5-5-5-5-5-0--------------------|
----------------------------------------------------|
----------------------------------------------------|

                                 Ice Ice Baby [x2]


[VANILLA ICE]
VERSE 3
Now that the party is jumpin'
With the bass kicked in, and the Vegas all pumpin'
Quick to the point, to the point no fakin'
Cooking MC's like a pound of bacon
Burning them if you ain’t quick and nimble
I go crazy when I hear a cymbal
And a hi-hat with a supped up tempo
I'm on a roll - it's time to go solo

[JEDWARD]
DAGA X2
Pressure [x11]


[VANILLA ICE]
VERSE 4
Rollin' - in my 5.0
With my ragtop down so my hair can blow
The girlies on standby
Waiting just to say "hi"
Did you stop?
No - I just drove by
Kept on - pursuing to the next stop
I busted a left and I'm heading to the next block
That block was dead
Yo - so I continued to A1A Beachfront Avenue.

CHORUS 4
[JEDWARD]
D                 A
Pressure, pushing down on me
         G                       A
Pressing down on you, no man ask for
      D                      A
Under pressure, that burns a building down
         G
Splits a family in two
     A
Puts people on streets
D
Oom-bah-bah-bay
A
Oom-bah-bah-bay
    G
Doo-day-uh
    A
Eeh-ay-uh, That's okay
         D
It's the terror of knowing
          A
What this world is about,
G
Watching some good friends
           A
Screaming `Let me out'
     D                 A
Pray tomorrow takes me higher
            G                 A
Pressure on people, people on streets

OUTRO

----------------------------------------------------|
----------------------------------------------------|
-------------------------------------------5-7------|
---5-5-5-5-5-5-0-5-5-5-5-5-5-5-0--------------------|
----------------------------------------------------|
----------------------------------------------------|

(Too cold, too cold) Ice Ice Baby [x4]


Link to official website:
http://www.planetjedward.com/
Tap to rate this tab
 
# A B C D E F G H I J K L M N O P Q R S T U V W X Y Z