Misc Cartoons - Winnie The Pooh Theme tab

This is one of my favorite songs!!!! It always makes me feel better!!
Have fun!! Listen to the song to figure out the beat/rhythm and whatnot. God Bless!!! ♥


Here in the Hun-dred A-cre Wood, where Christopher Robin plays, you'll find the 
neighborhood of Christopher's childhood days.
e--1-0---------------3-6-5-3-0-3-5--6-5-3-0-3-8-5-1----------------|
B-----3-1--3-1--3-1----------------1---------------1-3-5-6-5-3-1-6-|
G------------------------------------------------------------------|
D------------------------------------------------------------------|
A------------------------------------------------------------------|
E------------------------------------------------------------------|

A donkey named Eeyore is his friend, and Kanga and little Roo. There's Rabbit, and 
and there's Owl, but most of all Winnie the Pooh.
e--5-6-3-0---------5-6-5-3-0-3-5----6-5--3-0-3--8-5-1------------------|
B---------3-1-3-1-----------------1--------------------1-3-5-6-5-3-1-6-|
G----------------------------------------------------------------------|
D----------------------------------------------------------------------|
A----------------------------------------------------------------------|
E----------------------------------------------------------------------|

Winnie the Pooh, Winnie the Pooh, chubby, little tubby all stuffed with fluffies. Winnie 
Pooh, Winnie the Pooh, willy, nilly, silly old bear
e--0-0---0-0------6-6-5-5-3-3-1-0-----0-0---0-0------6-6-5-5-3-3-1-|
B---3-3---3-3--1-1---------------3-4=--3-3---3-3--1-1--------------|
G------------------------------------------------------------------|
D------------------------------------------------------------------|
A------------------------------------------------------------------|
E------------------------------------------------------------------|
Tap to rate this tab
 
# A B C D E F G H I J K L M N O P Q R S T U V W X Y Z