Misc Cartoons - K-on - My Love Is A Stapler tab

Here is Yui's Guitar solo that she plays during Season 2! Enjoy, I hope I did it 
right! Standard Tuning on this one!

Intro:

---6---------------|---x---------------|---6---------------|
---6---------------|---x---------------|---6---------------|
---7---------------|---2h3p2-----------|---7---------------|
---7---------------|---3---------------|---7---------------|
---8---------------|---3---------------|---8---------------|
---6---------------|---x---------------|---6---------------|






                    nande nan daro....   ki ni naru yoru kimi e no

---3---------------|---x---x---x---x---|---x---x---x---x------|
---3---------------|---x---x---x---6---|---1---2---3---2------|
---3---------------|---2---3---5---5---|---0---2---2---2------|
---3---------------|---3---3---3---3---|---2---2---2---2------|
---3---------------|---3---3---0---0---|---3---0---0---0------|
---x---------------|---x---x---x---x---|---x---x---x---x------|


kono omoi bin sen.. suki no kakuritsu... areba ii noni~

---x---x---x---x---|---x---x---5---2---|---x---x---x-------|
---6---x---x---x---|---x---5---5---1---|---x---6---5-------|
---7---5---3---5---|---3---5---6---2---|---3---5---5-------|
---7---5---3---5---|---3---5---7---0---|---3---5---5-------|
---5---3---1---3---|---1---3---7---0---|---1---3---3-------|
---x---x---x---x---|---x---x---5---x---|---x---x---x-------|

hajimari dake wa... atsuku natte...       mou hari ga nandaka....

---x---x---5---5---|---5---------------|---3---5---x------x---|
---x---x---5---6---|---6---------------|---3---5---x------x---|
---2---5---6---7---|---5---------------|---3---5---3------5---|
---3---5---7---7---|---7---------------|---5---7---3------5---|
---3---3---7---5---|---x---------------|---5---7---1------3---|
---x---x---5---x---|---x---------------|---3---5---x------x---|


  Windmill on the last chord like Yui!! :)
Tap to rate this tab
 
# A B C D E F G H I J K L M N O P Q R S T U V W X Y Z