Song name
# A B C D E F G H I J K L M N O P Q R S T U V W X Y Z

Misc Cartoons - Codename Kids Next Door Theme tab

-----------------------------------------------------------------
Codename: Kids Next Door Theme
-----------------------------------------------------------------
Tabbed by: DgorillazguyH
Email: almostashuvit@yahoo.com
Tuning: EADGBE

No One Has Tabbed This Yet So I Felt I Had To

E|--14~----------------------------------------------------------|
B|--15~-----------3-2~-----------6-5~----------3-2---6-5---4-3---|
G|--15~--------3-------------3--------------3--------------------|
D|--17~-----5----5--------5----5----------5---5----5-----5-------|
A|---------------------------------------------------------------|
E|---------------------------------------------------------------|

E|--------------------3-2~----------6-5~-------------------------|
B|----------------4-------------4---------------4---4-6-7-8------|
G|----3~-------5----5--------5----5---------5-5---5--------------|
D|--5------------------------------------------------------------|
A|---------------------------------------------------------------|
E|---------------------------------------------------------------|

E|---------8-11-8------------------------------------------------|
B|--8-8-11-----------15~-----------------------------------------|
G|-------------------15~-----------------------------------------|
D|-------------------17~-----------------------------------------|
A|---------------------------------------------------------------|
E|---------------------------------------------------------------|

Enjoy!
Tap to rate this tab
 
# A B C D E F G H I J K L M N O P Q R S T U V W X Y Z