Song name
# A B C D E F G H I J K L M N O P Q R S T U V W X Y Z

Misc Cartoons - Dragon Ball Z - Super Saiyan 3 Ascension Theme tab

Heyy This Is My First Tab, I Was Thought I Was Never Going To Post On This WebSite But 
I Wanted To Learn This Great Song To Many People
On YouTube Knew How To Play It And Didnt Even Give Tutorials Or Posted A Tab Which Wasnt 
So I Tried To Tab It Out And Hopefully All You Out There
Can Help Make It Perfect!!! So Please Help :3 Email Me If You Get Any Further Or For 
:)

-------------------------------------------------------------------------------
			     Super Saiyan 3 Ascension Theme  - DragonBall Z
-------------------------------------------------------------------------------
Tabbed by: MannyxGoree.
Email:MannyxGore@live.com

Tuning: Standard

Intro:

Im Just Tabbing The Notes, You Can Figure Out the Timing.

Time: 00:10   x2
The Second Time Its A Little Different But Its Basically The Same Thing.

e|---------------------------------------------------------------------------|
B|---------------------------------------------------------------------------|
G|--5~----5----6~------------------------------------------------------------|
D|--5~--5---5--6~--------6~--------5~----------3~----------------------------|
A|--3~---------4~--------6~--------5~----------3~----------------------------|
E|-----------------------4~--------3~----------1~----------------------------|



On This Part,I Usually Hit 17 Like 2~3 More Times Lightly In The Beginning,
You`ll See When Your Playing It.

NOTE!!! See This B4 You Play It!
Every Other Time You Play This,In The Ending Hit 19 On The e String 3 Times, Not Every Time!

Part 1 :

x3

e|-----------------------------20-20-20--------------------------------------|
B|----------15--16--18---20~-------------------------------------------------|
G|---17b~--------------------------------------------------------------------|
D|---------------------------------------------------------------------------|
A|---------------------------------------------------------------------------|
E|---------------------------------------------------------------------------|

x1

e|---------------------------------------19-19-19----------------------------|
B|----------15--16--18---20~-----20------------------------------------------|
G|---17~---------------------17----------------------------------------------|
D|---------------------------------------------------------------------------|
A|---------------------------------------------------------------------------|
E|---------------------------------------------------------------------------|

Part 2 : x8

When Your Hearing This Part On The 4th And 8th Time There Is a Guitar Slide And Some 
Quick Hammer On`s Going Up The The G String. I Dont Know The Hammer on`s But The Guitar 
Starts On The 15th Fret of E String Going Up.


e|---------------------------------------------------------------------------|
B|------16-------------------------------18----------------------------------|
G|--17------17-17---15---17----------17------17-17---15--17------------------|
D|---------------------------------------------------------------------------|
A|---------------------------------------------------------------------------|
E|-----------------------------------------------------------------15\-------|

Part 3 : Same Thing As Part One But More Straight Forward.


e|---------------------------------------------------------------------------|
B|----------15--16--18---20~-------------------------------------------------|
G|---17~---------------------------------------------------------------------|
D|---------------------------------------------------------------------------|
A|---------------------------------------------------------------------------|
E|---------------------------------------------------------------------------|

Thats ALl I Know Ill Try To Figure Out More And Make Corrections,
Plz Help Make This Tab Better :D
Remember This Is My First Tab I Kno Its Not 100% Right
But Im Trying So Everyone Can Learn.
Leave Corrections in Commts Or In Email,
Have Fun Playing :D

************************************

| /   slide up
| \   slide down
| h   hammer-on
| p   pull-off
| ~   vibrato
| +   harmonic
| x   Mute note
| b   Bend
| pb  Pre-bend
| br  Bend release
| pbr Pre-bend release
| brb Bend release bend

************************************
Tap to rate this tab
 
# A B C D E F G H I J K L M N O P Q R S T U V W X Y Z