Misc Cartoons - Total Drama Island Theme tab

|===================================|
|      Total Drama Island Theme     |
|===================================|
(As well as Total Drama Action and World Tour)

++Check out my Iron Man - Armoured Adventures and
Storm Hawks Intro tabs!! :D++

If you saw the note above you probably figured that I tab any song that
has an awesome iPod-worthy intro theme. You're also probably right :D
So yeah, awesome track, hilarious show :D what more to say? :)
The constant palm muting is a pain, but that may be because I'm tabbing
this on a half-size acoustic and I'm near to 6ft tall and have long fingers :P
Anyway...
Please rate and comment :D

Enjoy!! :D

====

Standard Tuning
Two guitars (but they play the same thing)

PM = palm mute
~  = vibrato

====

Intro (With that awesome synth-thing. It's doing two-octave arpeggios
E major, A major and B major, which basically covers all the power chords
in this song :D)
e|-------------------------------------------------------------------|
B|-------------------------------------------------------------------|
G|-------------------------------------------------------------------|
D|--2-2-2-2-2-2-2-2-7-7-7-7-7-7-7-7-9-9-9-9-9-9-9-9-2-2-2-2-2-2-2-2--|
A|--2-2-2-2-2-2-2-2-7-7-7-7-7-7-7-7-9-9-9-9-9-9-9-9-2-2-2-2-2-2-2-2--|
E|--0-0-0-0-0-0-0-0-5-5-5-5-5-5-5-5-7-7-7-7-7-7-7-7-0-0-0-0-0-0-0-0--|
PM  . . . . . . . . . . . . . . . .

====

Verse
Part 1 "Hey mum and dad, I'm doing fine..."     
e|--------------------------------------------------------------0---|
B|--------------------------------------------------------------0---|
G|--------------------------------------------------------------1---|
D|--7-7-7-7-7-7-7-7-2-2-2-2-2-2-2-2-9-9-9-9-9-9-9-9-2-2-2-2-2-2-2---|
A|--7-7-7-7-7-7-7-7-2-2-2-2-2-2-2-2-9-9-9-9-9-9-9-9-2-2-2-2-2-2-2---|
E|--5-5-5-5-5-5-5-5-0-0-0-0-0-0-0-0-7-7-7-7-7-7-7-7-0-0-0-0-0-0-0---|  x2
PM  . . . . . . . . . . . . . . . . . . . . . . . . . . . .

e|-------------------------------------------------------------------|
B|-------------------------------------------------------------------|
G|-------------------------------------------------------------------|
D|--7-7-7-7-7-7-7-7-9-9-9-9-9-9-9-9-2-2-2-2-2-2-2-2-2-2-2-2-2-2-2-2--|
A|--7-7-7-7-7-7-7-7-9-9-9-9-9-9-9-9-2-2-2-2-2-2-2-2-2-2-2-2-2-2-2-2--|
E|--5-5-5-5-5-5-5-5-7-7-7-7-7-7-7-7-0-0-0-0-0-0-0-0-0-0-0-0-0-0-0-0--|
PM  . . . . . . . . . . . . . . . .

Part 2
No guitar until after
"I wanna live close to the sun,
Well pack your bags because I've already won"
e|------------------------------------------------------------------------|
B|------------------------------------------------------------------------|
G|------------------------------------------------------------------------|
D|--7~---7-7-7-7-7-7-7-7-2-2-2-2-2-2-2-2-9-9-9-9-9-9-9-9-2-2-2-2-2-2-2-2--|
A|--7~---7-7-7-7-7-7-7-7-2-2-2-2-2-2-2-2-9-9-9-9-9-9-9-9-2-2-2-2-2-2-2-2--|
E|--5~---5-5-5-5-5-5-5-5-0-0-0-0-0-0-0-0-7-7-7-7-7-7-7-7-0-0-0-0-0-0-0-0--|
PM       . . . . . . . . . . . . . . . . . . . . . . . . . . . . . . . .

e|-------------------------------------------------------------------|
B|-------------------------------------------------------------------|
G|-------------------------------------------------------------------|
D|--7-7-7-7-7-7-7-7-9-9-9-9-9-9-9-9-2-2-2-2-2-2-2-2-2-2-2-2-2-2-2-2--|
A|--7-7-7-7-7-7-7-7-9-9-9-9-9-9-9-9-2-2-2-2-2-2-2-2-2-2-2-2-2-2-2-2--|
E|--5-5-5-5-5-5-5-5-7-7-7-7-7-7-7-7-0-0-0-0-0-0-0-0-0-0-0-0-0-0-0-0--|
PM  . . . . . . . . . . . . . . . .

====

Chorus "Na na na na na na..."
e|--------------------------------------------------|
B|--------------------------------------------------|
G|--------------------------------------------------|
D|--2--2--2--2--7--7--7--7--9--9--9--9--2--2--2--2--|
A|--2--2--2--2--7--7--7--7--9--9--9--9--2--2--2--2--|
E|--0--0--0--0--5--5--5--5--7--7--7--7--0--0--0--0--|

"I wanna be, I wanna be, I wanna be famous"
e|-------------------------------------------------------------------|
B|-------------------------------------------------------------------|
G|-------------------------------------------------------------------|
D|--2-2-2-2-2-2-2-2-7-7-7-7-7-7-7-7-9-9-9-9-9-9-9-9-2-2-2-2-2-2-2-2--|
A|--2-2-2-2-2-2-2-2-7-7-7-7-7-7-7-7-9-9-9-9-9-9-9-9-2-2-2-2-2-2-2-2--|
E|--0-0-0-0-0-0-0-0-5-5-5-5-5-5-5-5-7-7-7-7-7-7-7-7-0-0-0-0-0-0-0-0--| x2

====

Outro *Whistling*
    E       B(barred) E
e|--0-------7---------0--|
B|--0-------7---------0--|
G|--1-------8---------1--|
D|--2-------9---------2--|
A|--2-------9---------2--|
E|--0-------7---------0--|


Well that's it!
If I left anything out or whatever let me know in the comments :)
Don't forget to rate and comment! :D
Tap to rate this tab
 
# A B C D E F G H I J K L M N O P Q R S T U V W X Y Z