Song name
# A B C D E F G H I J K L M N O P Q R S T U V W X Y Z

Misc Cartoons - Death Note - Kuroi Light Theme tab

I added on the low E string a note you can sometimes hear along the song. But it isn't 
by a guitar, so it's all about you if you wanna play it or not.

This is the tab without the low E string.

e|-5-----8-----7--8--10--2--3--8--7-|-5-----8-----7--8--10--2--3--0--7--8-|
B|----5-----5-----------------------|----5-----5--------------------------|
G|----------------------------------|-------------------------------------|
D|----------------------------------|-------------------------------------|
A|----------------------------------|-------------------------------------|
E|----------------------------------|-------------------------------------|

And this is the tab with the low E string.

e|-5-----8-----7--8--10--2--3--8--7-|-5-----8-----7--8--10--2--3--0--7--8-|
B|----5-----5-----------------------|----5-----5--------------------------|
G|----------------------------------|-------------------------------------|
D|----------------------------------|-------------------------------------|
A|----------------------------------|-------------------------------------|
E|-0==================--------------|-------------------------------------|

This part is played twice after playing the first one x2. Until the end of the song. But 
can easly understand it listening to the song.

P.S. Sorry for my english, i'm italian. For any questions contact me at mirkino96@live.it
Tap to rate this tab
 
# A B C D E F G H I J K L M N O P Q R S T U V W X Y Z