Song name
# A B C D E F G H I J K L M N O P Q R S T U V W X Y Z

Misc Cartoons - Samurai Champloo Theme tab

San Francisco by Midicronica (Samurai Champloo Ending)
Tabbed by pixiefh (n.machala@gmail.com)

Standard tuning
Light distortion

All of this part is palm muted throughout the entire song. 
This is my first tab EVER so do not expect it to be perfect. 
I love this song and I was never able to find tabs online so here you go ^_^


E||-------------------------------------------------------------------|
B||-------------------------------------------------------------------|
G||-----2-2-6-7-6h7p6-2---------4-6--4h6p4----------------------------|
D||-0-0----------------0-----6-6-----------6-------------2-4-2h4p2----|
A||----------------------4-4----------------4--------4-4----------4---|
E||----------------------------------------------2-2---------------2--|

E||-----------------------------------------|
B||-----------------------------------------|
G||-----------------------------------------|
D||--4------6------7------9-----------------|
A||-----------------------------------------|
E||-2-2--2/4-4--4/5-5--5/7-7----------------|
Tap to rate this tab
 
# A B C D E F G H I J K L M N O P Q R S T U V W X Y Z