Misc Cartoons - K-on - No Thank You tab

HO-KAGO TEA TIME - NO, Thank You!

FM7 - 133210
CM7 - x32000
GM7 - 320002
A.H. - Artificial Harmonics/Pinch Harmonics
P.S. - Pitch Shift (Pedal)

Intro:
Em   )
C D  } (x2)

Verse:
Em D A (x4)
Em A (x2)
C G/B
Am Bm C D

Chorus:
C D G Em
C D Em D/F# G Bm
C D Bm Em
Am Bm

Instrumental:
Em   )
C D  } (x2)

repeat Verse

repeat Chorus

Bridge:
FM7
CM7 Bm7
CM7 GM7
C Bm7 Em7
Am Bm C D

Solo:
Em F (x3)  )
Em G F     }  (x3)
Em F (x2)
D G C F

Verse 2:
Em A (x2)
C G/B
Am Bm C D
D

repeat Chorus

Outro:
Em   )
C D  } (x2)

Intro/Instrumental/Outro Solo:
----------------------------------------------------------------|
----------------------------------------------------------------|
----------------------------------------------------------------|
-5-5--7-5-5--9--7-7--10-9--9---12-10-10--7-9--9---5-7-7--4-2--4-| (x2)
-7-7--9-7-7--10-9-9--12-10-10--14-12-12--9-10-10--7-9-9--5-3--5-|
----------------------------------------------------------------|

Verse:
 0:27           0:32
---------------------------------------------------------------|
---------------------------------------------------------------|
--------------------------------9--9--9--x--9-x-9-9-9-9--------|
--6-7-6-7-6------6-7-6-7-6-------------------------------------|
---------------------------------------------------------------|
--4-5-4-5-4------4-5-4-5-4-------------------------------------|

-------------------------------------------------------------------------------|
-------------------------------------------------------------------------------|
-x-7--7--7--x--2-x-2-2-2-2--9--9--9--x--9-x-9-9-9-9--x-7--7--7--x--2-x-2-2-2-2-|
-------------------------------------------------------------------------------|
-------------------------------------------------------------------------------|
-------------------------------------------------------------------------------|

--------------------------------------------------------------------------|
----------8-7h8p7--------------------8-7h8p7------------------------------|
-9---6------------9-7-6-9---9---6------------9-7-6-9----12---9---7---12---|
--------7--------------------------7-----------------7--------------------|
-7---4----------------------7---4-----------------------10---7---5---10---|
--------------------------------------------------------------------------|

---------------------------------------------------------------|
---------------------------------------------------------------|
-9---11---12---14-14-------------------------------------------|
---------------------------------------------------------------|
-7---9----10---12-12-------------------------------------------|
---------------------------------------------------------------|

Verse after Instrumental:
---------------------------------------------------------------|
---------------------------------------------------------------|
--------------------------------9--9--9--x--9-x-9-9-9-9--------|
--6-7-6-7-6------6-7-6-7-6-------------------------------------|
---------------------------------------------------------------|
--4-5-4-5-4------4-5-4-5-4-------------------------------------|

-------------------------------------------------------------------------------|
-------------------------------------------------------------------------------|
-x-7--7--7--x--2-x-2-2-2-2--9--9--9--x--9-x-9-9-9-9--x-7--7--7--x--2-x-2-2-2-2-|
-------------------------------------------------------------------------------|
-------------------------------------------------------------------------------|
-------------------------------------------------------------------------------|

--------------------------------------------------------------------------|
----------8-7h8p7--------------------8-7h8p7------------------------------|
-9---6------------9-7-6-9---9---6------------9-7-6-9----12---9---7---12---|
--------7--------------------------7-----------------7--------------------|
-7---4----------------------7---4-----------------------10---7---5---10---|
--------------------------------------------------------------------------|

------------------------------------------------------------|
------------------------------------------------------------|
-14-14-----16-16-----17-17-----19-19--19-19-19--------------|
-------14--------16--------17-------------------------------|
-12--------14--------15--------17-17--17-17-17--------------|
------------------------------------------------------------|

Bridge:
FM7  CM7      Bm7       CM7     GM7
-0-------------------2----------------2-----7-----------|
-1---------0------3----------0----------------7---------|
-2-------0------2----------0--------0-------------------|
-3-----2-----------------2--------0------/5-------------|
-3---3--------2--------3--------------------------------|
-1------------------------------3-----------------------|

 C               Bm7     Em7
------------------------------7-------------------------|
-----1-------3-------3----------------------------------|
---0---0---2---2---2---2----7---------------------------|
--------------------------------------------------------|
-3-------3-------2-------/7-----------------------------|
--------------------------------------------------------|

Solo:
        A.H.-> P.S.           A.H.          A.H.
--------------------------------------------------------|
-/17-17----------------/17-17--------/17-17-------------|
--------14--------------------14------------14----------|
--------------------------------------------------------|
--------------------------------------------------------|
--------------------------------------------------------|

----------------10--------------8-----------------------|
-------10----12---------8----10-------------------------|
----11----12----------9---10----------------------------|
-12----------------10-----------------------------------|
--------------------------------------------------------|
--------------------------------------------------------|

Verse 2:
--------------------------------------------------------------------------|
----------8-7h8p7--------------------8-7h8p7------------------------------|
-9---6------------9-7-6-9---9---6------------9-7-6-9----12---9---7---12---|
--------7--------------------------7-----------------7--------------------|
-7---4----------------------7---4-----------------------10---7---5---10---|
--------------------------------------------------------------------------|

------------------------------------------------------------|
------------------------------------------------------------|
-14-14-----16-16-----17-17-----19-19--19-19-19--------------|
-------14--------16--------17-------------------------------|
-12--------14--------15--------17-17--17-17-17--------------|
------------------------------------------------------------|

Chords & Tabs by,
tsunvun86
Tap to rate this tab
 
# A B C D E F G H I J K L M N O P Q R S T U V W X Y Z