Misc Cartoons - Pokemon - I Choose You tab

My first tab. Let me know if there sounds like there might be an error somewhere.
If you have some degree of music theory down,
you can also play the higher-note parts in a
lower octave and it still sounds good.

Note: This is NOT the theme song of the show
that plays at the beginning with
"I want to be, the very best!".

Here is the song I'm tabbing, for reference and timing:
http://www.youtube.com/watch?v=Y9LqiGjTW3Q

 h   - hammer-on
 p   - pull-off
 b   - bend
 ~   - vibrato (or) let ring
 /   - slide up
 \   - slide down
 .   - Palm Mute
 ^   - Pick (while sliding, pick the string/note as soon as you reach the fret)
( )  - Optional Note (If it sounds like too much, you can leave these out)

[Drop D Tuning]


Intro
E:----------------------------------------------------|
B:----------------------------------------------------|
G:----------------------------------------------------|
D:----7----8----7----4----7----8/12---0-0---10---0-0--|
A:----7----8----7----4----7----8/12---0-0---10---0-0--|
D:--007--008--007--004--007--008/12---0-0---10---0-0--|
    ..   ..   ..   ..   ..   ..   ^

E:-------------------------------|
B:-------------------------------|
G:-------------------------------|
D:----7----8----10----11/12~-12--|
A:----7----8----10----11/12~-12--|
D:--007--008--0010--0011/12~-----|
    ..   ..   ..    ..    ^


Pre-Chorus (1x only, in the beginning)
E:-----------------------------------------------|
B:-----------------------------------------------|
G:-----------------------------------------------|
D:---002-3-5--5----555---5--5----3333345---------|
A:---002-3-5--5----555---5--5----3333345---------|
D:---002-3-5--5----555---5--5----3333345---------|


Chorus
E:-----------------------------------------------------------|
B:----------15~--------18--17-16-15~-------------------------|
G:---12----16---------12-------------------------------------|
D:-------------------------------------(10)--(9)--(10)-------|
A:-------------------------------------(10)--(9)--(10)-------|
D:--------------------------------------10----9----10--------|

E:----------------------------------------------------------|
B:----------15~--------13-12-13-15~-------------------------|
G:---12----16-----------------------------------------------|
D:-------------------------------------(10)(9)(10)(12)------|
A:-------------------------------------(10)(9)(10)(12)------|
D:--------------------------------------10--9--10--12-------|

E:------------------------------------------------------------------|
B:----------15~--------18--17-16-15---------------------------------|
G:---12----16---------12--------------------------------------------|
D:-----------------------------------15--14-13-12~--(10)--(9)--(10)-|
A:--------------------------------------------------(10)--(9)--(10)-|
D:---------------------------------------------------10----9----10--|

E:---------------------------------18------|
B:----------15~--------18-17-18-20---20~---|
G:---12----16------------------------------|
D:-----------------------------------------|
A:-----------------------------------------|
D:-----------------------------------------|

Bridge (Continue straight from chorus; don't lift your finger from vibrato)
E:---17--18------------18-19-20--------------19-20-21--------------|
B:-----------18-18~---------------20-20~---------------------------|
G:----------------------------------------------------17h18h19(x3)-|
D:-----------------------------------------------------------------|
A:-----------------------------------------------------------------|
D:-----------------------------------------------------------------|

E:-19-19-20-21---------------20-20-19--|(Go to beginning of chorus again)
B:-------------------------------------|
G:-------------17h18h19(x3)------------|
D:-------------------------------------|
A:-------------------------------------|
D:-------------------------------------|

(When back a second time from chorus, finish with this)

E:-19-19-20-21---------20-20-19--------------------------------------------|
B:-----------------------------20-20--20-20-20--20-20-18-18-18-18-18-19-20-|
G:------------17h18h19(x3)-------------------------------------------------|
D:-------------------------------------------------------------------------|
A:-------------------------------------------------------------------------|
D:-------------------------------------------------------------------------|


That's it. Thanks :]
Tap to rate this tab
 
# A B C D E F G H I J K L M N O P Q R S T U V W X Y Z