Misc Cartoons - Inspector Gadget Theme tab

Tabbed by: Krypster@Yahoo.com
(all credit goes to him) I put this up because I love this theme song :D


e---------------------------------------------------------------------------|
B---------------------------------------------------------------------------|
G----------------------------2-1-------------------------------2-4----------|
D---------0-2------------0-2----------------0-2------------0-2--------------|
A---0-2-3----------0-2-3--------------0-2-3----------0-2-3------------------|
E---------------------------------------------------------------------------|

e---------------------------------------------------------------------------|
B---------------------------------------------------------------------------|
G---------------------------------------------------------------------------|
D---2-1------0--------2-1----0------3-2---0-2-------------0-2---1---0-------|
A-------2------4-1--------2----4-1------3-----3-2-3-0-2-3-----3---2---3-----|
E---------------------------------------------------------------------------|

e---------------------------------------------------------------------------|
B---------------------------------------------------------------------------|
G------------2-1------------------------------------------------------------|
D--------0-2-------------0-2---1---0-----2----2--0------------0-2---1---0---|
A--0-2-3-----------0-2-3-----3---2---3------2-----------0-2-3-----3---2---3-|
E---------------------------------------------------------------------------|

e---------------------------------------------------------------------------|
B---------------------------------------------------------------------------|
G------------2-1------------------------------------------------------------|
D--------0-2-------------0-2---1---0----------------------------------------|
A--0-2-3-----------0-2-3-----3---2---3-------------3-2----------------------|
E--------------------------------------1-0-1-0-5-4--------------------------|

e---------------------------------------------------------------------------|
B---------------------------------------------------------------------------|
G----------2-4-2-1-----2-1----------------2-4-2-1---------------------------|
D------------------3-2-----3-2-0------------------3-2-3-2-0-----------------|
A--5-0-5-0------------------------5-0-5-0-------------------3-2-------------|
E---------------------------------------------------------------------------|

e---------------------------------------------------------------------------|
B---------------------------------------------------------------------------|
G----------------------------------2-1--------------------------------------|
D--------0-2---1---0-----------0-2-------------0-2---1---0------------------|
A--0-2-3-----3---2---3---0-2-3-----------0-2-3-----3---2---3----------------|
E---------------------------------------------------------------------------|

e---------------------------------------------------------------------------|
B---------------------------------------------------------------------------|
G---------------------------------------------------------------------------|
D-----------------------------3-2-------------------------------------------|
A-------------------------3-2-----------------------------------------------|
E--1-----0-----5-----4------------------5-4-3-0-1----0-5--------------------|	
Tap to rate this tab
 
# A B C D E F G H I J K L M N O P Q R S T U V W X Y Z