Misc Cartoons - Leaves From The Vine Theme tab

My 3rd tab and i think this is the best one on here so hope you like it >.<

( repeat it twice but listen to the song for pattern :] )

tuning: standard
no capo

e|--0--0----------------|
a|--------3--2----------|
d|----------------------|
g|----------------------| x 2
b|----------------------|
e|----------------------|

e|----------------------|
a|--2--2--3--2--0-------|
d|-----------------2----|
g|----------------------|
b|----------------------|
e|----------------------|

e|--2--2--2--0----------|
a|--------------2-------|
d|----------------------|
g|----------------------|
b|----------------------|
e|----------------------|


YAY AVATAR :]
Tap to rate this tab
 
# A B C D E F G H I J K L M N O P Q R S T U V W X Y Z