Misc Cartoons - Avatars Love Theme tab

my second tab and this is the song that plays at the series finale of avatar: the 
last airbender =] hope you like it.

tuning: standard
no capo


----11-10-------------|
----------10-8--------|
----------------------|
----------------------| x4
----------------------|
----------------------|


---4-3-----4-3-4-3----|
-------4-1---------4-1|
----------------------|
----------------------| x2
----------------------|
----------------------|

----11-10-------------|
----------10-8--------|
----------------------|
----------------------| x4
----------------------|
----------------------|

-4-3-4-6-8-6-8-10-11--|
----------------------|
----------------------|
----------------------|
----------------------|
----------------------|

-10-11-13-------------|
----------------------|
----------------------|
----------------------|
----------------------|
----------------------|

-15-15-15-17-17-12-4-9|
----------------------|
----------------------|
----------------------|
----------------------|
----------------------|

--------0-------------|
--------0-------------|
--------0-------------|
--------0-------------| (let it ring)
--------0-------------|
--------0-------------|

----------------------|
----------------------|
----------------------|
----------------------|
-0--5-3-7-------------|
----------------------|

Tap to rate this tab
 
# A B C D E F G H I J K L M N O P Q R S T U V W X Y Z