Song name
# A B C D E F G H I J K L M N O P Q R S T U V W X Y Z

Misc Cartoons - Inspector Gadget Theme tab

That's the tab, hope it's 100% correct. Rate so we can find out :)

-----------------------------------------|
-----------------------------------------|
------------7--9------8-----7------------|
--7--9--10--------10-----9-----10--------|
-----------------------------------------|
-----------------------------------------|

-----------------------------------------|
------------------------10--9------------|
------------7--9-----6-------------------|
--7--9--10--------8----------------------|
-----------------------------------------|
-----------------------------------------|
Tap to rate this tab
 
# A B C D E F G H I J K L M N O P Q R S T U V W X Y Z