Misc Cartoons - K-on - Yuiazu Fude Pen Boru Pen tab

E  :------------------|------------------|-------------------------|
B  :------------------|------------------|-------------------------|
G  :------------------|9---x-9-9----x-9--|-9-----x-9----9-----x-9--|
D  :x---x--x(x)---x---|9---x-9-9----x-9--|-9-----x-9----9-----x-9--|
A  :x---x--x(x)---x---|7---x-7-7----x-7--|-7-----x-7----7-----x-7--|
E  :x---x--x(x)---x---|------------------|-------------------------|

E  :------------------|------------------|-------------------------|
B  :------------------|------------------|-------------------------|
G  :------------------|9--*8-------------|----8--*---8------------8|
D  :------------------|-------*9----*---9|11--*-11-----11--9-11----|
A  :------------------|------------11----|-------------------------|
E  :------------------|------------------|-------------------------|

============================================================================

E  :--------------------|------------------------|----------------|
B  :--------------------|------------------------|----------------|
G  :11---x-11-11---x-11-|11-----x-11-11-----x--9-|9---x-9-9---x-9-|
D  :11---x-11-11---x-11-|11-----x-11-11-----x--9-|9---x-9-9---x-9-|
A  :-9---x--9--9---x--9-|-9-----x--9--9-----x--7-|7---x-7-7---x-7-|
E  :--------------------|------------------------|----------------|

E  :--------------------|------------------------|----------------|
B  :--------------------|---------12-13-12-------|----------------|
G  :11------------------|13-11-13----------12-11-|9---------------|
D  :--------------------|------------------------|----------------|
A  :--------------------|------------------------|----------------|
E  :--------------------|------------------------|----------------|

============================================================================

E  :------------------|--------------------|----------------|
B  :------------------|--------------------|----------------|
G  :9-*---------------|9---x-(-9)-9----x-9-|9---x-9-9---x-9-|
D  :9-*---------------|9---x-(-9)-9----x-9-|9---x-9-9---x-9-|
A  :7-*---------------|7---x-(-7)-7----x-7-|7---x-7-7---x-7-|
E  :------------------|--------------------|----------------|

E  :------------------|--------------------|----------------|
B  :----12-*-12-------|------------------9-|*-9---*---------|
G  :----14-*-14-------|-----------9----*---|----------------|
D  :------------------|----9--11--*---11-*-|----------------|
A  :------------------|--------------------|----------------|
E  :------------------|--------------------|----------------|

============================================================================

E  :---------------------|--------------------|-------------------|
B  :---------------------|--------------------|-------------------|
G  :-*---x--*--*----x--*-|-*---x--*--*---x--*-|6---x--6-6----x--6-|
D  :11---x-11-11----x-11-|11---x-11-11---x-11-|7---x--7-7----x--7-|
A  :11---x-11-11----x-11-|11---x-11-11---x-11-|7---x--7-7----x--7-|
E  :-9---x--9--9----x--9-|-9---x--9--9---x--9-|5---x--5-5----x--5-|

E  :---------------------|--------------------|-------------------|
B  :-------------------9-|-*-9----*-----------|-------------------|
G  :-----------9----*----|--------------------|---------9----*-12-|
D  :-----9-11--*---11--*-|--------------------|----9-11-*---11--*-|
A  :---------------------|--------------------|-------------------|
E  :---------------------|--------------------|-------------------|

============================================================================

E  :------------------|------------------|------------------|
B  :------------------|------------------|------------------|
G  :6----x-6-6----x-6-|9---x-(9)-9---x-9-|----*-------------|
D  :7----x-7-7----x-7-|9---x-(9)-9---x-9-|--x-9---10---11---|
A  :7----x-7-7----x-7-|7---x-(7)-7---x-7-|--x-9---10---11---|
E  :5----x-5-5----x-5-|*-----------------|--x-7----8----9---|

E  :------------------|------------------|------------------|
B  :---*--------*-----|--9----9----------|------------------|
G  :--11---9----*-----|------------------|------------------|
D  :-----------11---9-|--*---------------|------------------|
A  :------------------|------------------|------------------|
E  :------------------|------------------|------------------|

============================================================================

E  :--------------------|----------------|---------------------|
B  :--------------------|----------------|---------------------|
G  :9---x-(-9)-9----x-9-|9---x-9-9---x-9-|-*---x--*--*----x--*-|
D  :9---x-(-9)-9----x-9-|9---x-9-9---x-9-|11---x-11-11----x-11-|
A  :7---x-(-7)-7----x-7-|7---x-7-7---x-7-|11---x-11-11----x-11-|
E  :*-------------------|----------------|-9---x--9--9----x--9-|

E  :--------------------|----------------|---------------------|
B  :------------------9-|*-9---*---------|-------------------9-|
G  :-----------9----*---|----------------|-----------9----*----|
D  :----9--11--*---11-*-|----------------|-----9-11--*---11--*-|
A  :--------------------|----------------|---------------------|
E  :--------------------|----------------|---------------------|

============================================================================

E  :--------------------|-------------------|-------------------|
B  :--------------------|-------------------|-------------------|
G  :-*---x--*--*---x--*-|6---x--6-6----x--6-|5----x-5-5----x--5-|
D  :11---x-11-11---x-11-|7---x--7-7----x--7-|7----x-7-7----x--7-|
A  :11---x-11-11---x-11-|7---x--7-7----x--7-|7----x-7-7----x--7-|
E  :-9---x--9--9---x--9-|5---x--5-5----x--5-|5----x-5-5----x--5-|

E  :--------------------|-------------------|-------------------|
B  :-*-9----*-----------|-------------------|---*--------*------|
G  :--------------------|---------9----*-12-|--11---9---11---11-|
D  :--------------------|----9-11-*---11--*-|-------------------|
A  :--------------------|-------------------|-------------------|
E  :--------------------|-------------------|-------------------|

============================================================================

E  :------------------|----------------|----------------|----------------|
B  :------------------|----------------|----------------|----------------|
G  :9---x-(9)-9---x-9-|9---9---8---7---|6---*-----------|*---------------|
D  :9---x-(9)-9---x-9-|9---9---8---7---|6---*-----------|*---------------|
A  :7---x-(7)-7---x-7-|7---7---6---5---|4---*-----------|*---------------|
E  :*-----------------|----------------|----------------|----------------|

E  :------------------|----------------|----------------|----------------|
B  :------------------|----------------|----9-8---------|----------------|
G  :9-----------------|----------------|----------------|----------------|
D  :------------------|----------------|----------------|----------------|
A  :------------------|----------------|----------------|----------------|
E  :------------------|----------------|----------------|----------------|
Tap to rate this tab
 
# A B C D E F G H I J K L M N O P Q R S T U V W X Y Z