Misc Cartoons - K-on - Falling Reinforced Concrete tab

Track 1
PM PM PM PM PM PM PM PM PM PM
Q E E E E E E Q E E E E E E
E||-------|-------|-------------------------|-------------------------|
B||-------|-------|-------------------------|-------------------------|
G||-------|-------|-------------------------|----------------------5--|
D||-------|-------|--5----5--5--5--5--5--8--|--L----8--8--8--8--8--5--|
A||-------|-------|--5----5--5--5--5--5--8--|--L----8--8--8--8--8--3--|
E||-------|-------|--3----3--3--3--3--3--6--|--L----6--6--6--6--6-----|

PM PM PM PM PM PM PM PM PM PM PM
Q E E E E E E E Q Q Q E Q E E E E E E
-------------------------|-----------------------|-------------------------|
-------------------------|-----------------------|-------------------------|
--L----5--5--5--5--5--5--|--6--5----3----5----L--|-------------------------|
--L----5--5--5--5--5--5--|--6--5----3----5----L--|--5----5--5--5--5--5--8--|
--L----3--3--3--3--3--3--|--4--3----1----3----L--|--5----5--5--5--5--5--8--|
-------------------------|-----------------------|--3----3--3--3--3--3--6--|

PM PM PM PM PM PM PM PM PM PM PM PM
Q E E E E E E Q E E E E E E E E E E E E E E
-------------------------|-------------------------|--------------------------|
-------------------------|-------------------------|--------------------------|
-------------------------|-------------------------|--------------------------|
--L----8--8--8--8--8--3--|--L----3--3--3--3--3--3--|--3--------------------5--|
--L----8--8--8--8--8--3--|--L----3--3--3--3--3--3--|--3-----------1--------5--|
--L----6--6--6--6--6--1--|--L----1--1--1--1--1--1--|--1--1--2--3-----3--2--3--|

PM PM PM PM PM PM PM PM PM PM PM PM PM PM PM PM
Q E E E E E E Q E E E E E E Q E E E E E E
-------------------------|-------------------------|-------------------------|
-------------------------|-------------------------|-------------------------|
-------------------------|----------------------5--|--L----5--5--5--5--5--5--|
--L----5--5--5--5--5--8--|--L----8--8--8--8--8--5--|--L----5--5--5--5--5--5--|
--L----5--5--5--5--5--8--|--L----8--8--8--8--8--3--|--L----3--3--3--3--3--3--|
--L----3--3--3--3--3--6--|--L----6--6--6--6--6-----|-------------------------|

PM PM PM PM PM PM PM PM PM PM
E Q Q Q E Q E E E E E E Q E E E E E E
-----------------------|-------------------------|-------------------------|
-----------------------|-------------------------|-------------------------|
--6--5----3----5----L--|-------------------------|-------------------------|
--6--5----3----5----L--|--5----5--5--5--5--5--8--|--L----8--8--8--8--8--3--|
--4--3----1----3----L--|--5----5--5--5--5--5--8--|--L----8--8--8--8--8--3--|
-----------------------|--3----3--3--3--3--3--6--|--L----6--6--6--6--6--1--|

PM PM PM PM PM PM PM
Q E E E E E E E E E E E E E E
-------------------------|--------------------------|-------||
-------------------------|--------------------------|-------||
-------------------------|--------5-----5-----5-----|-------||
--L----3--3--3--3--3--3--|--3-----5-----5-----5-----|-------||
--L----3--3--3--3--3--3--|--3-----3-----3-----3-----|-------||
--L----1--1--1--1--1--1--|--1-----------------------|-------||
Tap to rate this tab
 
# A B C D E F G H I J K L M N O P Q R S T U V W X Y Z