Misc Cartoons - K-on - Yui tab

E||--------------------------|
B||--------------------------|
G||--------------------------|
D||----0-2-0-----0-2-0---0---|
A||--3-------3-3-------3-----|
E||--------------------------|

E||--------------------------|
B||--------------------------|
G||--------------------------|
D||----0-2-0-----0-2-0---0---|
A||--3-------3-3-------3-----|
E||--------------------------|

E||--------------------------|
B||--------------------------|
G||--------------------------|
D||----0-2-0-----0-2-0---0---|
A||--3-------3-3-------3-----|
E||--------------------------|

E||--------------------------|
B||--------------------------|
G||--------------------------|
D||----0-2-0-----0-2-0---0---|
A||--3-------3-3-------3-----|
E||--------------------------|
Tap to rate this tab
 
# A B C D E F G H I J K L M N O P Q R S T U V W X Y Z