Song name
# A B C D E F G H I J K L M N O P Q R S T U V W X Y Z

Misc Cartoons - Scooby-doo Theme tab

                  Scooby Doo Theme Song
             By The People Who Made Scooby Doo

This is a REALLY easy song to play.
I figured it out on my own one day when i got bored.
I also got a cooler version of it down.
Yeah this song is really easy its
almost all on the D string.

Verse:
e----------------------------------------|
B----------------------------------------|
G----------------------------------------|
D-7-7-5-5-3----3-7-----5-7-5-7-7-5-3-----|
A------------------3---------------------|
E----------------------------------------|

Then play the verse again.


Riff 1:
e----------------------------------------------|
B----------------------------------------------|
G----------------------------------------------|
D-3--5-5-5--3-5-5-5---3-5-5-5-5-3-5-7----3-5-7-|
A----------------------------------------------|
E----------------------------------------------|

Riff 2:
e-----------------------------------------------------|
B-----------------------------------------------------|
G-----------------------------------------------------|
D-3--5-5-5--3-5-5-5--3-5-5-5-5-3-5-7----7-5-3--3~~~~~-|
A-----------------------------------------------------|
E-----------------------------------------------------|

Ending:
e----------------------------------------|
B----------------------------------------|
G----------------------------------------|
D-7-7-5-5-3--3-7----5-7-5-7-7--5-3~~~~~~-|
A----------------3-----------------------|
E----------------------------------------|

Ok, so play:
Verse       2x
Riff 1      1x
Riff 2      1x
Ending      1x

I'll put the cooler version a this song i made up another time.

Thanks For Listening
Tap to rate this tab
 
# A B C D E F G H I J K L M N O P Q R S T U V W X Y Z