Song name
# A B C D E F G H I J K L M N O P Q R S T U V W X Y Z

Misc Cartoons - Pokemon - Lugia Song tab

I'll hopefully get to finish the whole song later.
It took me a while to get this much and it was fun really.
If I made any mistakes, I'll fix it later :)
I spaced it for general timing.


e|--0----3----2-----------------|--0----3----2----------3--7~-|
B|-----------------3----5----0--|---------------0----5--------|
G|------------------------------|-----------------------------|
D|------------------------------|-----------------------------|
A|------------------------------|-----------------------------|
E|------------------------------|-----------------------------|


|--12---10---7-------------------------|
|-----------------8----10h-12p-10------|
|-----------------------------------9~-|
|--------------------------------------|
|--------------------------------------|
|--------------------------------------|


|-------------------------------------------|
|-------12---10-----------------------------|
|--9---------------7----11h--12p11p9--7--9~-|
|-------------------------------------------|
|-------------------------------------------|
|-------------------------------------------|


|--0----3----2-----------------|--0----3----2----10~--------------|
|-----------------3----5----0--|----------------------12--10--12~-|
|------------------------------|----------------------------------|
|------------------------------|----------------------------------|
|------------------------------|----------------------------------|
|------------------------------|----------------------------------|


|--12---10---7-------------------------|
|-----------------8----10h-12p-10------|
|-----------------------------------9~-|
|--------------------------------------|
|--------------------------------------|
|--------------------------------------|


|--------------------------------------|
|-------12---10------------------------|
|--9--------------7----11h--12p-11p-9~-|
|--------------------------------------|
|--------------------------------------|
|--------------------------------------|
Tap to rate this tab
 
# A B C D E F G H I J K L M N O P Q R S T U V W X Y Z