Song name
# A B C D E F G H I J K L M N O P Q R S T U V W X Y Z

Misc Cartoons - School Rumble - Onna No Ko Otoko No Ko tab

Standard Tuning

Rhythm Guitar is comprised of three chords.
Gotta know when to play which rhythm part when

Rhythm 1
e-6-6-6-6-6-6-6-6-5-5-5-5-5-5-5-5-|
b-8-8-8-8-8-8-8-8-6-6-6-6-6-6-6-6-|
g-7-7-7-7-7-7-7-7-7-7-7-7-7-7-7-7-|
d-8-8-8-8-8-8-8-8-7-7-7-7-7-7-7-7-|
a-6-6-6-6-6-6-6-6-5-5-5-5-5-5-5-5-|
e---------------------------------|

Rhythm 2
e-6-6-6-6-6-6-6-6-6-6-6-6-5-5-5-5-5-5-5-5-5-5-5-5-|
b-8-8-8-8-8-8-8-8-8-8-8-8-6-6-6-6-6-6-6-6-6-6-6-6-|
g-7-7-7-7-7-7-7-7-7-7-7-7-7-7-7-7-7-7-7-7-7-7-7-7-|
d-8-8-8-8-8-8-8-8-8-8-8-8-7-7-7-7-7-7-7-7-7-7-7-7-|
a-6-6-6-6-6-6-6-6-6-6-6-6-5-5-5-5-5-5-5-5-5-5-5-5-|
e-------------------------------------------------|

Rhythm 3 (Palm mute strings in between chords)
e-6--5--3--5--6--5--3-|
b-8--6--4--6--8--6--4-|
g-7--7--3--7--7--7--3-|
d-8--7--5--7--8--7--5-|
a-6--5--3--5--6--5--3-|
e---------------------|

Rhythm 4
e-5-5-5-5-6-6-6-6-|
b-6-6-6-6-8-8-8-8-|
g-7-7-7-7-7-7-7-7-|
d-7-7-7-7-8-8-8-8-|
a-5-5-5-5-6-6-6-6-|
e-----------------|

Lead Guitar
Intro
e----------5-6-5-----|
b-8-6-8--8-------8---|
g------------------5-|
d--------------------|
a--------------------|
e--------------------|

Solo 1
e-------------------------------------------------------------------6~-|
b-6-6-6-6-6-6-6-8--------------------6-6-6-6-6-6-6-6-8--------------6~-|
g-----------------5-6-8-8-8-8-8-8--8-------------------5-6-8-8-8-8-----|
d----------------------------------------------------------------------|
a----------------------------------------------------------------------|
e----------------------------------------------------------------------|

Verse Lead
e---------------------|
b-6-6-6-6-6-6-6-8-----|
g-----------------7-8-| 2x
d---------------------|
a---------------------|
e---------------------|

Solo 2
Part 1
e-------------------------------------------------|
b-6-6---------6-6---6-------------------6-8---6-8-|
g-----8-7-5-------8---8-7-5---7-5-7---7-----7-----|
d-----------8---------------8---------------------|
a-------------------------------------------------|
e-------------------------------------------------|

Part 2
e-------------------------------------|
b-6-6---------6-6---6---------8~------|
g-----8-7-5-------8---8-7-5-------7~--|
d-----------8---------------8---------|
a-------------------------------------|
e-------------------------------------|

Outro
e-------------------------------------------------|
b-6-6---------6-6---6-------------------6-8---6-8-|
g-----8-7-5-------8---8-7-5---7-5-7---7-----7-----|
d-----------8---------------8---------------------|
a-------------------------------------------------|
e-------------------------------------------------|

e-------------------------------------------------|
b-6-6---------6-6---6-------------------6-8---8-6-|
g-----8-7-5-------8---8-7-5---7-5-7---7-----7-----|
d-----------8---------------8---------------------|
a-------------------------------------------------|
e-------------------------------------------------|

Order: (Rhythm / Lead)
---none----, Lead Intro
Rhythm 1 2x
Rhythm 2 1x
Rhythm 1 1x
Rhythm 3 2x
Rhythm 4 1x
Rhythm 1 2x, Lead Solo 1
Rhythm 1 2x
Rhythm 2 1x
Rhythm 1 1x
Rhythm 3 3x
Rhythm 4 1x
Rhythm 1 2x, Verse Lead 2x
Rhythm 3 2x
Rhythm 4 2x
Rhythm 1 2x, Lead Solo 2
Rhythm 1 2x, Verse Lead 2x
Rhythm 3 2x
Rhythm 4 4x
---none----, Lead Intro
Rhythm 1 4x, Lead Outro 2x
Tap to rate this tab
 
# A B C D E F G H I J K L M N O P Q R S T U V W X Y Z