Misc Cartoons - Weihnachtsmann Und Co Kg Theme tab

E|--3-0-3-0-3-3-3-0-3-3-3-5------0-1-0-1-0-1---0-1-0-1-3-0-|
B|--------------------------3--3-------------3-------------|
G|---------------------------------------------------------|
D|---------------------------------------------------------|
A|---------------------------------------------------------|
E|---------------------------------------------------------|

E|----------0----------------------------------------------|
B|----1-1-3---3-1-0----------------------------------------|
G|---0--------------0-2-2-4-5-4-2-0-0-2-2-4-5-4-2-0--------|
D|---------------------------------------------------------|
A|---------------------------------------------------------|
E|---------------------------------------------------------|

E|--3-0-3-0-3-3-3-0-3-3-3-5------0-1-0-1-0-1---0-1-0-1-3-0-|
B|--------------------------3--3-------------3-------------|
G|---------------------------------------------------------|
D|---------------------------------------------------------|
A|---------------------------------------------------------|
E|---------------------------------------------------------|

E|----------0----------------------------------------------|
B|----1-1-3---3-1-0---------------------------6------------|
G|---0--------------0-2-2-4-5-4-2-0-0-2-2-4-5---4-5--------|
D|---------------------------------------------------------|
A|---------------------------------------------------------|
E|---------------------------------------------------------|

Tap to rate this tab
 
# A B C D E F G H I J K L M N O P Q R S T U V W X Y Z