Misc Cartoons - The Cleveland Show Theme tab

-------------------------------------------------------------------------------
			     Theme Song - The Cleveland Show
-------------------------------------------------------------------------------
Tabbed by: Marcus

This is my first tab and it was done by tonal memory and comparing with the 
original so if there are any errors, leave a comment!

Intro:
e|--------------|
B|-2-2--2--2-2--|
G|-2-2--2--2-2--|
D|-2-2--2--2-2--|
A|--------------|
E|--------------|

Song:
e|-0-0---0-0-2----------------0-0---0-0-2---------------|
B|-----2--------2-0---0-0---------2--------2-0---0-0-2--|
G|------------------2-----2--------------------2--------|
D|------------------------------------------------------|
A|------------------------------------------------------|
E|------------------------------------------------------|

e|-2-5-2-0-5-2-0-2-0---0---2-5-2-0-5-2-0-2-0---0--|
B|-------------------3-----------------------3----|
G|------------------------------------------------|
D|------------------------------------------------|
A|------------------------------------------------|
E|------------------------------------------------|

e|-0-0---0-0-2----------------0-0---0-0-2--5-5-2-5-5-7--|
B|-----2--------2-0---0-0---------2---------------------|
G|------------------2-----2-----------------------------|
D|------------------------------------------------------|
A|------------------------------------------------------|
E|------------------------------------------------------|
Tap to rate this tab
 
# A B C D E F G H I J K L M N O P Q R S T U V W X Y Z