Song name
# A B C D E F G H I J K L M N O P Q R S T U V W X Y Z

Misc Cartoons - Sailor Moon Theme tab

First off, I'd like to say this may not be that great,
it's my first tab, but I think I did a pretty good job.
Feel free to point out any mistakes. I tried my best by
listening to the music box version on youtube and then
writing it down. This is from when Usagi/Serena finds the
Tuxedo Kamen/Mask's Music box. I absolutely love this song!


------------------------------------|
------------------------------------|
---------------2-2--0-0---------0---|
--------0--3--------------3--2------|
----0-------------------------------|
------------------------------------|

------------------------------------|
------------------------------------|
--------------0--2-0----------------|
--------0--3----------3-2-3---------|
----0-------------------------------|
------------------------------------|

------------------------------------|
------------------------------------|
--------------2-2--0-0--------0-----|
--------0--3------------3--2--------|
----0-------------------------------|
------------------------------------|

------------------------------------|
------------------------------------|
--------------0--2-0----------------|
--------0--3-----------3--2-0--3----|
----0-------------------------------|
------------------------------------|

------------------------------------|
------------------------------1-----|
--------------2-2--0-0---2------3---|
--------0--3------------------------|
----0-------------------------------|
------------------------------------|

------------------------------------|
------------------------------------|
---3---2--0--2--0-------------------|
-------------------3-2--0-----------|
------------------------------------|
------------------------------------|
Tap to rate this tab
 
# A B C D E F G H I J K L M N O P Q R S T U V W X Y Z