Song name
# A B C D E F G H I J K L M N O P Q R S T U V W X Y Z

Misc Cartoons - Pink Panther Theme tab

The Pink Panther Theme Song
A Good Tune, Easy To Play...
e---------------------------------------------------------------------------|
b---------------------------------------------------------------------------|
g-------------------------------------------------5---4-----------------4---|
d---------------------4---5--------------4---5---------------------5--------|
a-----4--5----6--7--------------6---7-------------------------7-------------|
E---------------------------------------------------------------------------|


e---------------------------------------------------------------------------|
b---------------------------------------------------------------------------|
g---------------------------------------------------------------------------|
d-----7/8-----7----5---------------------6--7--8--9----9--8--7--6-----------|
a------------------------7---5---7-------4--5--6--7----7--6--5--4-----------|
E---------------------------------------------------------------------------|As the tune 
progresses go faster and faster. Just keep on Repeating the song.This is my first tab 
so please Rate It....
Tap to rate this tab
 
# A B C D E F G H I J K L M N O P Q R S T U V W X Y Z