Misc Cartoons - Invader Zim - Main Title Theme tab

Invader Zim (Main Title Theme)

Originally by Mark Tortorici

Tabbed by me!

key:

h-hammer on
p-pull off
PM-palm mute
/-slide

e|-----------------------------------------|
B|-----------------------------------------|
G|-----------------------------------------|
D|-----------------------------------0-3---|
A|-2h4-5-5-5--2h4-5-5-5--2h4-5-5-5-5-------|
E|-----------------------------------------|

|-------------------------------------|
|-------------------------------------|
|-------------------------------------|
|-------------------------------------|
|-2h4-5-5-5--44-5-5-5--44-5/4-4/3-3/2-|
|-------------------------------------|
PM           ..        ..

|-----------------------------------------|
|-----------------------------------------|
|-----------------------------------------|
|-----------------------------------0-3---|
|-2h4-5-5-5--2h4-5-5-5--2h4-5-5-5-5-------|
|-----------------------------------------|

|----------------------------------------|
|----------------------------------------|
|----------------------------------------|
|----------------------------------------|
|-2h4-5-5-5--1h3-4-4-4--33-4/3-3/2-5-----|
|----------------------------------3-----|
PM                      ..


Pause

|------------------|
|------------------|
|------------------|
|------------------|
|-1122334455667788-|
|------------------|

Pause

|------------------|
|------------------|
|------------------|
|------------------|
|-1122334455667788-|
|------------------|

Pause

(do a long slide on the 4th string down to a C [the tenth fret])
|------------------|
|------------------|
|------------------|
|-------------1/10-|
|-112233445566-----|
|------------------|


And immediately after that,

(very quickly)
|-------------------------------------------------------|
|-8p7---8p7---8p7------------8p7---8p7---8p7------------|
|----8p7---8p7---8p7-7/6-6/5----8p7---8p7---8p7-6/5-5/4-|
|-------------------------------------------------------|
|-------------------------------------------------------|
|-------------------------------------------------------|

|-------------------------------------------------------------|
|-8p7---8p7---8p7---------------------------------------------|
|----8p7---8p7---8p7-7/6-6/5-8/7-7/6-6/5-5/4-4/3-3/2-2/1-0----|
|-------------------------------------------------------------|
|-------------------------------------------------------------|
|-------------------------------------------------------------|

Look up the theme, listen to it, and it will make sense.
Tap to rate this tab
 
# A B C D E F G H I J K L M N O P Q R S T U V W X Y Z