Song name
# A B C D E F G H I J K L M N O P Q R S T U V W X Y Z

Misc Cartoons - Pink Panther Theme tab

Song: The Pink Panther
Artist: ?
Tabbed By: Christheman
Tuning: Drop D

Intro
e|-------------------|   x2
B|-------------------|
G|-------------------|
D|-------------------|
A|---4h5-6h7--2------|
D|--------------2----|

e|-------------------|
B|-------------------|
G|-------------------|
D|-------------------|
A|---7p6-5p4---4-----|
D|-----------4-------|

e|-------------------|   
B|-------------------|
G|-------------------|
D|-------------------|
A|---4h5-6h7--2------|
D|--------------2----|

Verse
e|-------------------------------------------|
B|-------------------------------------------|
G|-------------------------------------------|
D|-------------------------------------------|
A|--------------------3-2-----2-1--0---------|
D|--1-2--4-5--1-2-4-5-----2-5--------5-2-0-2-|



e|-------------------------------------------|
B|-------------------------------------------|
G|-------------------------------------------|
D|----------------------------2-1~-----------|
A|--------------------3-2--------------------|
D|--1-2--4-5--1-2-4-5-----2-5----------------|


e|-------------------------------------------|
B|-------------------------------------------|
G|-------------------------------------------|
D|-------------------------------------------|
A|--------------------3-2-----2-1--0---------|
D|--1-2--4-5--1-2-4-5-----2-5--------5-2-0-2-|


e|-------------------------------------------|
B|-------------------------------------------|
G|-------------------------------------------|
D|--2-0--------------------------------------|
A|------2-0----------------------------------|
D|----------5-2--8p7-8p7-8p7-8p7--5p2-0-2----|
Tap to rate this tab
# A B C D E F G H I J K L M N O P Q R S T U V W X Y Z