Song name
# A B C D E F G H I J K L M N O P Q R S T U V W X Y Z

Misc Cartoons - Rango Theme tab

Hello everybody, here's the tab of Rango's guitar theme by Hans Zimmer and Los Lobos

Hope you'll like it  




 E |---------------------------------|--------------------------------|
 A |---------------------------------|--------------------------------|
 D |---------------------------------|--------------------------------|
 G |---------------------0--0-0------|----------------------0---------|
 B |---------0--1--1-1-3--------1----|---------0--1--1-1-3------------|
 e |--3--3-3----------------------3--|--3--3-3------------------------|

 E |---------------------------------|--------------------------------|
 A |---------------------------------|--------------------------------|
 D |---------------------------------|--------------------------------|
 G |--0--3s5--5-5--3-0---0-1-1-1-----|------------3-------------------|
 B |-------------------3---------1---|----0-1-1-1---0----1p0----------|
 e |-------------------------------3-|--3--------------------3--------|

 
I think it's correct
Tap to rate this tab
 
# A B C D E F G H I J K L M N O P Q R S T U V W X Y Z