Misc Cartoons - Hey Arnold Theme tab

Hey Arnold Theme

e|----------------|----------------|-----------------|---------------|
B|----------------|----4-----------|-----------------|--------4------|
G|------0-1-3-1---|-0--------------|-----3---1-------|----0----------|
D|-----4--------3-|----------------|-------------4---|---------------|
A|--1-------------|----------------|-----------------|---------------|
E|----------------|----------------|-----------------|---------------|

e|----------------|----------------|-----------------|---------------|
B|----------------|----4-----------|-----2---1---0---|--------4------|
G|------0-1-3-1---|-0--------------|-----------------|----3----------|
D|-----4--------3-|----------------|-----------------|---------------|
A|--1-------------|----------------|-----------------|---------------|
E|----------------|----------------|-----------------|---------------|

e|----------------|----------------|-----------------|---------------|
B|------0-2-4-2-0-|-1--------------|--2p0-2p0--------|---------------|
G|----3-----------|----------------|-----3------1-2--|-3--0----------|
D|--1-------------|----4-----------|-----------------|------1--------|
A|----------------|----------------|-----------------|--------1------|
E|----------------|----------------|-----------------|---------------|

e|----------------|----------------|-----------------|---------------|
B|----------------|----------------|-----------------|---------------|
G|-----0-1-3------|----------------|-----------------|---------------|
D|---4-------4~---|----------------|-----------------|---------------|
A|-3--------------|----------------|-----------------|---------------|
E|----------------|----------------|-----------------|---------------|

e|----------------|----------------|-----------------|---------------|
B|----------------|----4-----------|-----------------|--------4------|
G|------0-1-3-1---|-0--------------|-----3---1-------|----0----------|
D|-----4--------3-|----------------|-------------4---|---------------|
A|--1-------------|----------------|-----------------|---------------|
E|----------------|----------------|-----------------|---------------|

e|----------------|----------------|-----------------|---------------|
B|------1-2-4-2-0-|-1--------------|--4p2-0--4p2-----|---4-----------|
G|----3-----------|----------------|------------1-2--|-3-------------|
D|--1-------------|----4-----------|-----------------|---------------|
A|----------------|----------------|-----------------|------1--------|
E|----------------|----------------|-----------------|---------------|

e|----------------|----------------|-----------------|---------------|
B|----------------|----------------|-----------2~----|---------------|
G|-------0--1-----|-3--------------|--3--------2-----|---------------|
D|-----4----------|----4-----------|--4--4-----1-----|---------------|
A|--3-------------|----------------|--4-----4--2-----|---------------|
E|----------------|----------------|-----------------|---------------|
Tap to rate this tab
 
# A B C D E F G H I J K L M N O P Q R S T U V W X Y Z