Song name
# A B C D E F G H I J K L M N O P Q R S T U V W X Y Z

Misc Cartoons - Backyardigans Them tab

I'm not sure if this is right, but it sounds good.

e|--------------------------------|
B|--------------------------------|
G|--------------------------------|
D|--------------------------------|
A|--0-4-5--0-4-5--0-4-5--0-4-5--0-|
E|--------------------------------|

e|----------------------|
B|----------------------|
G|--5\7-6---------------|
D|--------9-7-7-7-9-7-7-|
A|----------------------|
E|----------------------|

e|--------------------------------|
B|--------------------------------|
G|--------------------------------|
D|--------------------------------|
A|--0-4-5--0-4-5--0-4-5--0-4-5--0-|
E|--------------------------------|

e|----------------------|
B|----------------------|
G|--5\7-6---------------|
D|--------9-7-7-7-9-7-7-|
A|----------------------|
E|----------------------|

e|--------------------------------|
B|--------------------------------|
G|--------------------------------|
D|--------------------------------|
A|--0-4-5--0-4-5--0-4-5--0-4-5--0-|
E|--------------------------------|


e|---------------------------|
B|---------------------------|
G|---------------------------|
D|-------------4-4-4-5-5-5\7-|
A|-5-5-5-7-7-7---------------|
E|---------------------------|

e|-----------------------------------------------------------------|
B|-----------------------------------------------------------------|
G|-----------------------------------------6-6-6-7-6---------------|
D|-------------4-4-4-5-5-5-5\7-7-7-7\9-9-9-----------9-7-7-7-9-7-7-|
A|-5-5-5-7-7-7-----------------------------------------------------|
E|-----------------------------------------------------------------|
Tap to rate this tab
 
# A B C D E F G H I J K L M N O P Q R S T U V W X Y Z