Song name
# A B C D E F G H I J K L M N O P Q R S T U V W X Y Z

Misc Cartoons - Daitarn 3 Theme Acoustic tab

Questa invece č la versione acustica da Miak, canto pių accordi.

Capo 4 th


Daitarn Daitarn Daitarn x2

   La- Sol  La-    La- Sol  La- 
e|-4-4-7-7-4-4-----4-4-7-7-4-4-----------------------------------------------|
B|-5-5-7-7-5-5-----5-5-7-7-5-5-----------------------------------------------|
G|-6-6-8-8-6-6-----6-6-8-8-6-6-----------------------------------------------|
D|---------------------------------------------------------------------------|
A|-4-4-9-9-4-4-----4-4-9-9-4-4-------4---------------------------------------|
E|-----------------------------4-7-4-----------------------------------------|



uno per tre e tre per uno perche'...

   LA-                 Re-                                          x2
e|-4-------------------5-----------------------------------------------------|
B|-5-5-4-5---5-4-----7-7-----------------------------------------------------|
G|-6-------6-----4-6---6-----------------------------------------------------|
D|---------------------4-----------------------------------------------------|
A|-4---------------------4-7-4-----4-----------------------------------------|
E|-----------------------------7-8-------------------------------------------|



e difendiam la Terra dall'ombra della guerra...

   Do              Mi              La-            Fa Sol             x2
e|-4---------------4---------------4---------------5-7-----------------------|
B|-5---------------4---------------5---------------5-7-----------------------|
G|-4---------------5---------------6-------6-------6-8-----------------------|
D|---6-4-6-7-6-4-6---6-4-6-7-6-4-6---6-4-6---6-4-6---------------------------|
A|-7---------------6---------------4---------------7-9-9-9-7-9---------------|
E|---------------------------------------------------------------------------|



Daitarn, Daitarn arriva gia' il nemico scatta...

   La-               Fa                Sol               Mi         x2
e|-4-----------------5-----------------7-----------------4-------------------|
B|-5---6---6-9-8-6-9-5-----------------7-----------------4-------------------|
G|-6-6---6-----------6---6---6-9-8-6-8-8---8-------------5-------------------|
D|---------------------7---7-------------9---9-4-7-6-4-7---6-4---------------|
A|-4-----------------7-----------------9-----------------6-----7-6-----------|
E|---------------------------------------------------------------------------|
 
LA- Sol Fa Sol
e|-4-7-5-7-------------------------------------------------------------------|
B|-5-7-5-7-------------------------------------------------------------------|
G|-6-8-6-8-------------------------------------------------------------------|
D|---------------------------------------------------------------------------|
A|-4-9-7-9-------4-----------------------------------------------------------|
E|---------4-7-4-------------------------------------------------------------|


Tap to rate this tab
 
# A B C D E F G H I J K L M N O P Q R S T U V W X Y Z