Misc Cartoons - Dragon Ball Gt - Hitori Janai tab

hitori janai **chilena version** no estas sola


Dragon ball gt


TRANSCRIBED BY RUDY GUZMAN


guzman_84@hotmail.com




tambien sirve para la version mexicana

                                                                            x2
e:----------------------------------------------------------------------------|
B:-3-3-3-2--2-2-2-2-2--0-0-0-2--2-2-2-2-2--1-1-1----1-1-1-1-------------------|
G:-2-2-2-2--2-2-2-2-2--2-2-2-2--2-2-2-2-2--0-0-0-0--0-0-0-0--0-0-0-0-0--0-0-0-|
D:-2-2-2-2--2-2-2-2-2--2-2-2-2--2-2-2-2-2--2-2-2-0--0-0-0-0--0-0-0-0-0--0-0-0-|
A:-0-0-0-0--0-0-0-0-0--0-0-0-0--0-0-0-0-0--3-3-3-2--2-2-2-2--0-0-0-0-2--2-2-2-|
E:----------------------------------------------------------------------------|


 verse
   hay cosas que no resultan a causa de la obstinacion...
e:-------------------------------------------------------|
B:-2--2-2--2-2-2--2--2-2--2-2--3--3-3--2-2---------------|
G:-2--2-2--2-2-2--2--2-2--2-2--2--2-2--2-2--1--1-1-1-1-1-|
D:-2--2-2--2-2-2--2--2-2--2-2--0--0-0--2-2--2--2-2-2-2-2-|
A:-0--0-0--0-0-0--0--0-0--0-0----------0-0--2--2-2-2-2-2-|
E:------------------------------------------0--0-0-0-0-0-|

Por eso quiero seguir viviendo Para mañana y no para hoy.
e:-------------------3-3-3-3--2--2-2--2-2-2---------------|
B:-3--3-3--3-3-3-----3-3-3-3--3--3-3--3-3-3---------------|
G:-4--4-4--4-4-4--0--0-0-0-0--2--2-2--2-2-2--1--1-1-1-1-1-|
D:-4--4-4--4-4-4--0--0-0-0-0--0--0-0--0-0-0--2--2-2-2-2-2-|
A:-2--2-2--2-2-2--2--2-2-2-2-----------------2--2-2-2-2-2-|
E:----------------3--3-3-3-3-----------------0--0-0-0-0-0-|

Lo que busco en la gente Dentro de mí lo voy a encontrar
e:-------------------------------------------------------|
B:-2--2-2--2-2-2--2--2-2--2-2--3--3-3--2-2---------------|
G:-2--2-2--2-2-2--2--2-2--2-2--2--2-2--2-2--1--1-1-1-1-1-|
D:-2--2-2--2-2-2--2--2-2--2-2--0--0-0--2-2--2--2-2-2-2-2-|
A:-0--0-0--0-0-0--0--0-0--0-0----------0-0--2--2-2-2-2-2-|
E:------------------------------------------0--0-0-0-0-0-|

  Lastimándonos mutuamente Nada vamos a poder lograr Solo lágrimas y el dolor.
e:-------------------3-3-3-3--2--2-2--2-2-2--0--0-0--0-0-0---------------|
B:-3--3-3--3-3-3-----3-3-3-3--3--3-3--3-3-3--3--3-3--3-3-3---------------|
G:-4--4-4--4-4-4--0--0-0-0-0--2--2-2--2-2-2--2--2-2--2-2-2--1--1-1-1-1-1-|
D:-4--4-4--4-4-4--0--0-0-0-0--0--0-0--0-0-0--0--0-0--0-0-0--2--2-2-2-2-2-|
A:-2--2-2--2-2-2--2--2-2-2-2--------------------------------2--2-2-2-2-2-|
E:----------------3--3-3-3-3--------------------------------0--0-0-0-0-0-|

solo ya no quiero 

chorus
   estar y tu te vas convirtiendo en mí soñar...
e:----------------------------------------2--2-2--2-2-2-|
B:-2--2-2--2-2---------------3--3-3--3-3--3--3-3--3-3-3-|
G:-2--2-2--2-2--1--1-1--1-1--4--4-4--4-4--2--2-2--2-2-2-|
D:-2--2-2--2-2--2--2-2--2-2--4--4-4--4-4--0--0-0--0-0-0-|
A:-0--0-0--0-0--2--2-2--2-2--2--2-2--2-2----------------|
E:--------------0--0-0--0-0-----------------------------|


El viento va jugando con las flores Y también sonríe para mí
gt1
e:----------------------------------------------------2--2-2--2-2-2-2-2-2-|
B:-5--5-5-5-5-5-5----------------------3-3-3-3-3-3-3--3--3-3--3-3-3-3-3-3-|
G:-6--6-6-6-6-6-6----------------------4-4-4-4-4-4-4--2--2-2--2-2-2-2-2-2-|
D:-6--6-6-6-6-6-6----------------------4-4-4-4-4-4-4--0--0-0--0-0-0-0-0-0-|
A:-4--4-4-4-4-4-4--0-0-----------------2-2-2-2-2-2-2----------------------|
E:----------------------4-4--2-2--1-1-------------------------------------|
gt2
e:----------------------------------------------------2--2-2--2-2-2-2-2-2-|
B:-5--5-5-5-5-5-5--2-2--2-2--2-2--2-2--3-3-3-3-3-3-3--3--3-3--3-3-3-3-3-3-|
G:-6--6-6-6-6-6-6--2-2--2-2--2-2--2-2--4-4-4-4-4-4-4--2--2-2--2-2-2-2-2-2-|
D:-6--6-6-6-6-6-6--2-2--2-2--2-2--2-2--4-4-4-4-4-4-4--0--0-0--0-0-0-0-0-0-|
A:-4--4-4-4-4-4-4--0-0--0-0--0-0--0-0--2-2-2-2-2-2-2----------------------|
E:------------------------------------------------------------------------|

Y juntos desde hoy El valor, nos uniría hasta la eternidad
e:----------------------------------------2--2-2--2-2-2-|
B:-2--2-2--2-2---------------3--3-3--3-3--3--3-3--3-3-3-|
G:-2--2-2--2-2--1--1-1--1-1--4--4-4--4-4--2--2-2--2-2-2-|
D:-2--2-2--2-2--2--2-2--2-2--4--4-4--4-4--0--0-0--0-0-0-|
A:-0--0-0--0-0--2--2-2--2-2--2--2-2--2-2----------------|
E:--------------0--0-0--0-0-----------------------------|

Y es por eso que llegamos hasta aquí Tan lejos tratando de obtenerlo Y así el mundo 
gt1
e:----------------------------------------------------2-|
B:-5--5-5-5-5-5-5----------------------3-3-3-3-3-3-3--3-|
G:-6--6-6-6-6-6-6----------------------4-4-4-4-4-4-4--2-|
D:-6--6-6-6-6-6-6----------------------4-4-4-4-4-4-4--0-|
A:-4--4-4-4-4-4-4--0-0-----------------2-2-2-2-2-2-2----|
E:----------------------4-4--2-2--1-1-------------------|
gt2
e:----------------------------------------------------2-|
B:-5--5-5-5-5-5-5--2-2--2-2--2-2--2-2--3-3-3-3-3-3-3--3-|
G:-6--6-6-6-6-6-6--2-2--2-2--2-2--2-2--4-4-4-4-4-4-4--2-|
D:-6--6-6-6-6-6-6--2-2--2-2--2-2--2-2--4-4-4-4-4-4-4--0-|
A:-4--4-4-4-4-4-4--0-0--0-0--0-0--0-0--2-2-2-2-2-2-2----|
E:------------------------------------------------------|

  cambiar
                                                                            x2
e:----------------------------------------------------------------------------|
B:-3-3-3-2--2-2-2-2-2--0-0-0-2--2-2-2-2-2--1-1-1----1-1-1-1-------------------|
G:-2-2-2-2--2-2-2-2-2--2-2-2-2--2-2-2-2-2--0-0-0-0--0-0-0-0--0-0-0-0-0--0-0-0-|
D:-2-2-2-2--2-2-2-2-2--2-2-2-2--2-2-2-2-2--2-2-2-0--0-0-0-0--0-0-0-0-0--0-0-0-|
A:-0-0-0-0--0-0-0-0-0--0-0-0-0--0-0-0-0-0--3-3-3-2--2-2-2-2--0-0-0-0-2--2-2-2-|
E:----------------------------------------------------------------------------|



 verse
   hay cosas que no resultan a causa de la obstinacion...
e:-------------------------------------------------------|
B:-2--2-2--2-2-2--2--2-2--2-2--3--3-3--2-2---------------|
G:-2--2-2--2-2-2--2--2-2--2-2--2--2-2--2-2--1--1-1-1-1-1-|
D:-2--2-2--2-2-2--2--2-2--2-2--0--0-0--2-2--2--2-2-2-2-2-|
A:-0--0-0--0-0-0--0--0-0--0-0----------0-0--2--2-2-2-2-2-|
E:------------------------------------------0--0-0-0-0-0-|


e:-------------------3-3-3-3--2--2-2--2-2-2---------------|
B:-3--3-3--3-3-3-----3-3-3-3--3--3-3--3-3-3---------------|
G:-4--4-4--4-4-4--0--0-0-0-0--2--2-2--2-2-2--1--1-1-1-1-1-|
D:-4--4-4--4-4-4--0--0-0-0-0--0--0-0--0-0-0--2--2-2-2-2-2-|
A:-2--2-2--2-2-2--2--2-2-2-2-----------------2--2-2-2-2-2-|
E:----------------3--3-3-3-3-----------------0--0-0-0-0-0-|


e:-------------------------------------------------------|
B:-2--2-2--2-2-2--2--2-2--2-2--3--3-3--2-2---------------|
G:-2--2-2--2-2-2--2--2-2--2-2--2--2-2--2-2--1--1-1-1-1-1-|
D:-2--2-2--2-2-2--2--2-2--2-2--0--0-0--2-2--2--2-2-2-2-2-|
A:-0--0-0--0-0-0--0--0-0--0-0----------0-0--2--2-2-2-2-2-|
E:------------------------------------------0--0-0-0-0-0-|


e:-------------------3-3-3-3--2--2-2--2-2-2--0--0-0--0-0-0---------------|
B:-3--3-3--3-3-3-----3-3-3-3--3--3-3--3-3-3--3--3-3--3-3-3---------------|
G:-4--4-4--4-4-4--0--0-0-0-0--2--2-2--2-2-2--2--2-2--2-2-2--1--1-1-1-1-1-|
D:-4--4-4--4-4-4--0--0-0-0-0--0--0-0--0-0-0--0--0-0--0-0-0--2--2-2-2-2-2-|
A:-2--2-2--2-2-2--2--2-2-2-2--------------------------------2--2-2-2-2-2-|
E:----------------3--3-3-3-3--------------------------------0--0-0-0-0-0-|

solo ya no quiero 

chorus
   estar y tu te vas...
e:----------------------------------------2--2-2--2-2-2-|
B:-2--2-2--2-2---------------3--3-3--3-3--3--3-3--3-3-3-|
G:-2--2-2--2-2--1--1-1--1-1--4--4-4--4-4--2--2-2--2-2-2-|
D:-2--2-2--2-2--2--2-2--2-2--4--4-4--4-4--0--0-0--0-0-0-|
A:-0--0-0--0-0--2--2-2--2-2--2--2-2--2-2----------------|
E:--------------0--0-0--0-0-----------------------------|

e:----------------------------------------------------2--2-2--2-2-2-2-2-2-|
B:-5--5-5-5-5-5-5----------------------3-3-3-3-3-3-3--3--3-3--3-3-3-3-3-3-|
G:-6--6-6-6-6-6-6----------------------4-4-4-4-4-4-4--2--2-2--2-2-2-2-2-2-|
D:-6--6-6-6-6-6-6----------------------4-4-4-4-4-4-4--0--0-0--0-0-0-0-0-0-|
A:-4--4-4-4-4-4-4--0-0-----------------2-2-2-2-2-2-2----------------------|
E:----------------------4-4--2-2--1-1-------------------------------------|

e:----------------------------------------2--2-2--2-2-2-|
B:-2--2-2--2-2---------------3--3-3--3-3--3--3-3--3-3-3-|
G:-2--2-2--2-2--1--1-1--1-1--4--4-4--4-4--2--2-2--2-2-2-|
D:-2--2-2--2-2--2--2-2--2-2--4--4-4--4-4--0--0-0--0-0-0-|
A:-0--0-0--0-0--2--2-2--2-2--2--2-2--2-2----------------|
E:--------------0--0-0--0-0-----------------------------|

e:----------------------------------------------------2-|
B:-5--5-5-5-5-5-5----------------------3-3-3-3-3-3-3--3-|
G:-6--6-6-6-6-6-6----------------------4-4-4-4-4-4-4--2-|
D:-6--6-6-6-6-6-6----------------------4-4-4-4-4-4-4--0-|
A:-4--4-4-4-4-4-4--0-0-----------------2-2-2-2-2-2-2----|
E:----------------------4-4--2-2--1-1-------------------|

e:----------------------------------------------------------------------------|
B:-3-3-3-2--2-2-2-2-2--0-0-0-2--2-2-2-2-2--1-1-1----1-1-1-1-------------------|
G:-2-2-2-2--2-2-2-2-2--2-2-2-2--2-2-2-2-2--0-0-0-0--0-0-0-0--0-0-0-0-0--0-0-0-|
D:-2-2-2-2--2-2-2-2-2--2-2-2-2--2-2-2-2-2--2-2-2-0--0-0-0-0--0-0-0-0-0--0-0-0-|
A:-0-0-0-0--0-0-0-0-0--0-0-0-0--0-0-0-0-0--3-3-3-2--2-2-2-2--0-0-0-0-2--2-2-2-|
E:----------------------------------------------------------------------------|

e:-----------------------------------------------------------|
B:-3-3-3-2--2-2-2-2-2--0-0-0-2--2-2-2-2-2--1-1-1----------2--|
G:-2-2-2-2--2-2-2-2-2--2-2-2-2--2-2-2-2-2--0-0-0--0-------2--|
D:-2-2-2-2--2-2-2-2-2--2-2-2-2--2-2-2-2-2--2-2-2--0-------2--|
A:-0-0-0-0--0-0-0-0-0--0-0-0-0--0-0-0-0-0--3-3-3--2----0--0--|
E:---------------------------------------------------3-------|








hillo son mex

27/04/11
Tap to rate this tab
 
# A B C D E F G H I J K L M N O P Q R S T U V W X Y Z